» » »

New Found Glory - 2's And 3's Tabs

Artists:  A B C D E F G H I J K L M N O P Q R S T U V W X Y Z # 

2's And 3's Tabs

(ver. 1) Click to play this song!
New Found Glory
 Rating:
4/5 (4 votes)

 2's And 3's lessons Tabs too difficult? Try these video lessons and learn fast
 
                "2's and 3's" - A New Found Glory

Intro
e|-----------------------------------------
B|-----------------------------------------
G|---------------------------------10-9-10
D|-xxxx-33-33/5-55-55/7-77-77/8-8--x -x-x
A|-xxxx-33-33/5-55-55/7-77-77/8-8--8 -7-8 
E|-xxxx-11-11/3-33-33/5-55-55/6-6----------

Pre-Chorus
e|--------------------------------------------
B|--------------------------------------------
G|-3~-xxxx-3~-xxxx-5-3-5-3-5-3-5-3-5-3-5-3-5^~
D|-3~-xxxx-3~-xxxx----------------------------
A|-1~-xxxx-1~-xxxx----------------------------
E|--------------------------------------------

Verse
e|---------------------
B|---------------------
G|-----------5555-3333-
D|-3333-3333-5555-3333-
A|-3333-3333-3333-1111-
E|-1111-0000-----------

Chorus
e|---------------------------------------------
B|---------------------------------------------
G|------3333-7777-10101010-5555-7777-3333-5555-
D|-3333-3333-7777-10101010-5555-7777-3333-5555-
A|-3333-1111-5555-8 8 8 8 -3333-5555-1111-3333-
E|-1111----------------------------------------

Lead Part Chad Plays after Chorus
e|-------------------------------------------------------
B|-------------------------------------------------------
G|-3p2---3p2---3p2---3p2---5-5-5-5--7-7-7-7--10-10-10-10-
D|-----3-----3-----3-----3-------------------------------
A|-------------------------------------------------------
E|-------------------------------------------------------

cont'd
e|-----------------------------------------------------------------------
B|-13-----------------13----------------13-13-13-13/15-15-15-15/18^^^^^^-
G|----10-10h12p10-10-----10-10h12p10-10----------------------------------
D|-----------------------------------------------------------------------
A|-----------------------------------------------------------------------
E|-----------------------------------------------------------------------

End Guitar 1
e|---------------------------------------------
B|---------------------------------------------
G|------3333-7777-10101010-5555-7777-3333-5555-
D|-3333-3333-7777-10101010-5555-7777-3333-5555-
A|-3333-1111-5555-8 8 8 8 -3333-5555-1111-3333-
E|-1111----------------------------------------

cont'd
e|----------------------------------------
B|----------------------------------------
G|------3333-7777-10101010-5~-7~-3~-5~----
D|-3333-3333-7777-10101010-5~-7~-3~-5~-3~-
A|-3333-1111-5555-8 8 8 8 -3~-5~-1~-3~-3~-
E|-1111--------------------------------1~-

Lead Guitar End
e|------------------------------------------------------------
B|------------------------------------------------------------
G|-----5-3-2-----5-3-2-----7-5-3-3h5p3-2------5-3-2-----5-3-2-
D|-3-3-------3-3-------3-3----------------3-3-------3-3-------
A|------------------------------------------------------------
E|------------------------------------------------------------

cont'd
e|--------------------------
B|--------------------------
G|----5/7-7-7--3-3h5p3-2----
D|-3-3-------------------3~-
A|--------------------------
E|--------------------------
            
Submit corrections


        2's And 3's lessons Hard to play? Try these video lessons and learn fast 2's And 3's lessons
        
↑ Back to top | Tablatures and chords for acoustic guitar and electric guitar, ukulele, drums are parodies/interpretations of the original songs. You may use it for private study, scholarship, research or language learning purposes only