» » »

Neutral Milk Hotel - In The Aeroplane Over The Sea Bass

Artists:  A B C D E F G H I J K L M N O P Q R S T U V W X Y Z # 

In The Aeroplane Over The Sea Bass

(ver. 2) Click to play this song!
Neutral Milk Hotel
 Rating:
2/5 (26 votes)

 In The Aeroplane Over The Sea  lessons Tabs too difficult? Try these video lessons and learn fast
 
                           "...And one day we will die..."
G |-----------------|-----------------|-----------------|-----------------|
D |-----------------|-----------------|-----------------|-----------------|
A |-----------------|--------2--------|3----------------|5----------------|  x4
E |3--------------2-|-0---------------|---------------3-|--------5--------|
    

G |-----------------|-----------------|-----------------|-----------------|
D |-----------------|-----------------|-----------------|-----------------|
A |-----------------|3--------------3-|-----------------|5--------------5-|  x2
E |0--------------0-|-----------------|3--------------3-|-----------------|
  
G |-----------------|-----------------|-----------------|-----------------|
D |-----------------|-----------------|-----------------|-----------------|
A |-----------------|--------2--------|3----------------|5----------------|  x4
E |3--------------2-|-0---------------|---------------3-|--------5--------|
    
G |-----------------|-----------------|-----------------|-----------------|
D |-----------------|-----------------|-----------------|-----------------|
A |-----------------|3------3-------3-|-----------------|5------5---------|  x2
E |0-----0--0-----0-|-----3-----------|3-----3--3-----3-|-----5-----5-----|
     
G |-----------------|-----------------|-----------------|-----------------| (the difference between
D |-----------------|-----------------|-----------------|-----------------|  this line and the one
A |-----------------|3-------3------3-|-----------------|5------5---------|  above it is the rhythm
E |0-----0--0-----0-|-----3-----------|3-----3--3-----3-|-----5---------5-|  on the last note). [x1]

G |-----------------|-----------------|-----------------|-----------------|
D |-----------------|-----------------|-----------------|-----------------|
A |-----------------|--------2--------|3----------------|5----------------|  x4
E |3--------------2-|-0---------------|---------------3-|--------5--------|

G |-----------------|
D |-----------------|   
A |-----------------|  x1
E |3----------------|            
Submit corrections


        In The Aeroplane Over The Sea  lessons Hard to play? Try these video lessons and learn fast In The Aeroplane Over The Sea  lessons
        
↑ Back to top | Tablatures and chords for acoustic guitar and electric guitar, ukulele, drums are parodies/interpretations of the original songs. You may use it for private study, scholarship, research or language learning purposes only