» » »

Neutral Milk Hotel - In An Aeroplane Over The Sea Bass

Artists:  A B C D E F G H I J K L M N O P Q R S T U V W X Y Z # 

In An Aeroplane Over The Sea Bass

(ver. 1) Click to play this song!
Neutral Milk Hotel
 Rating:
4/5 (4 votes)

 In An Aeroplane Over The Sea lessons Tabs too difficult? Try these video lessons and learn fast
 
                Standard EADG

Verse (comes in at 0:41):
G |---------------|---------------|
D |---------------|---------------|
A |---------5-----|3-------5------|
E |-3----0-----5--|-----0------5--|

Verse Variation 1 (Around 1:10):
G |---------------|---------------|
D |---------------|---------------|
A |---------5-----|3-------5------|
E |-3----0-----5--|-----0------1--|

Bridge 1 (1:11-ish...):
G |-------------------------|
D |-------------------5---5-|
A |-------5---5-3---3-------|
E |-1---1-------------------|

Bridge 2:
Play a bunch of F's (I think... it may just be the bass drum, though), plus...
A |-----3-|
E |-1-3---| (After the guitar plays that)

A |-3----|
E |--3---| (As the guitar plays that)

A |-3----|--3---|
E |------|-3----| (As the guitar plays that)

Verse
Verse Variation 1
Bridge 
Verse
Verse Variation 1
Bridge 
Bridge 2
Verse
            
Submit corrections


        In An Aeroplane Over The Sea lessons Hard to play? Try these video lessons and learn fast In An Aeroplane Over The Sea lessons
        
↑ Back to top | Tablatures and chords for acoustic guitar and electric guitar, ukulele, drums are parodies/interpretations of the original songs. You may use it for private study, scholarship, research or language learning purposes only