» » »

Nesian Mystik - Sun Goes Down Bass

Artists:  A B C D E F G H I J K L M N O P Q R S T U V W X Y Z # 

Sun Goes Down Bass

(ver. 3) Click to play this song!
Nesian Mystik
 Rating:
4/5 (4 votes)


 Sun Goes Down lessons Tabs too difficult? Try these video lessons and learn fast
 
                This is the chord progression for "Sun Goes Down" by Nesian Mystik. "D-Am-F-G"
That chord progression goes through the whole song. In the bridge, you play the same 
chords slowly and softly. The bass tab goes:

G|----------------------------5--7-h9--------3--5--5--------5--5------------|
D|-5--7--9-----------7--9--------------7--7-----------7--5--------7--5------|
A|----------7--7-h9--------7------------------------------------------------|
E|--------------------------------------------------------------------------|

G|-3--5--7-----5--7--9------------------------------------------------------|
D|----------5-----------7---------------------------------------------------|
A|--------------------------------------------------------------------------|
E|--------------------------------------------------------------------------|

| /  slide up
| \  slide down
| h  hammer-on
| p  pull-off
| ~  vibrato
| +  harmonic
| x  Mute note
===============================================================================
            
Submit corrections



        Sun Goes Down lessons Hard to play? Try these video lessons and learn fast Sun Goes Down lessons
        
↑ Back to top | Tablatures and chords for acoustic guitar and electric guitar, ukulele, drums are parodies/interpretations of the original songs. You may use it for private study, scholarship, research or language learning purposes only