» » »

Neon Trees - Everybody Talks Bass

Artists:  A B C D E F G H I J K L M N O P Q R S T U V W X Y Z # 

Everybody Talks Bass

(ver. 1) Click to play this song!
Neon Trees
 Rating:
4/5 (5 votes)

 Everybody Talks lessons Tabs too difficult? Try these video lessons and learn fast
 
                -------------------------------------------------------------------------------
                             Everybody Talks-Neon Trees
-------------------------------------------------------------------------------

Tuning: Standard

Bass doesn't start until the chorus.

Chorus
G|-----------------------------------------------------------------------------|l
D|-----------------------------------------------------------------------------|l
A|-6666666666666666---------------------------------------6666666666666666-----|l
E|--------------------4444444444444444-55555555-44444444-----------------------|

G|------------------------------------------------------------------------------|
D|------------------------------------------------------------------------------|
A|-6666666666666666---------------------------------------6666666666666666------|l
E|--------------------3333333333333333-44444444-66666666------------------------|

Verse: Repeat 2x
G|-----------------------------------------|
D|-----------------------------------------|
A|-66--666--666--666-----------------------|
E|---------------------44--444--444--444---|

Prechorus
Gl-----------------------|
D|-----------------------|
A|-----------------------|
E|--6666666666666666-----|

Chorus

Bridge
G|-------------------------------------------------------|
D|-------------------------------------------------------|
A|---------------------------6-6--6-6-6--6-6-6--6-6-6----|
E|-4-4--4-4-4--4-4-4--4-4-4------------------------------|

G|--------------------------------------------------------|
D|--------------------------------------------------------|
A|--------------------------------------------------------|
E|-4-4--4-4-4--4-4-4--4-4-4--6-6--6-6-6--6-6-6--6-6-6-----|

Outro: Repeat 2x
G|----------------------------------------------------------------------|
D|----------------------------------------------------------------------|
A|-6-6-6-6-6-6-6-6-6-6-6-6-6-6-6-6--------------------------------------|
E|-----------------------------------4-4-4-4-4-4-4-4-4-4-4-4-4-4-4-4----|

G|-----------------------------------------------------------------------|
D|-----------------------------------------------------------------------|
A|------------------------------------6-6-6-6-6-6-6-6-6-6-6-6-6-6-6-6----|
E|-6-6-6-6-6-6-6-6--4-4-4-4-4-4-4-4--------------------------------------|




===============================================================================
            
Submit corrections


        Everybody Talks lessons Hard to play? Try these video lessons and learn fast Everybody Talks lessons
        
↑ Back to top | Tablatures and chords for acoustic guitar and electric guitar, ukulele, drums are parodies/interpretations of the original songs. You may use it for private study, scholarship, research or language learning purposes only