» » »

Natasha Bedingfield - Unwritten Tabs

Artists:  A B C D E F G H I J K L M N O P Q R S T U V W X Y Z # 

Unwritten Tabs

(ver. 3) Click to play this song!
Natasha Bedingfield
 Rating:
4/5 (10 votes)


 Unwritten lessons Tabs too difficult? Try these video lessons and learn fast
 
                Natasha Bedingfield - Unwritten acoustic

CAPO 3RD FRET
DROP D TUNING

p = pull off
s = slide

Chords

D  - xx0232
Em - 222000
G  - 5x543x
A  - 7x765x
Bm - x24432

Intro and verse


e --2----------3p2-------2p0------------------|
B ------3-----------3----------3-----5-s-3----|
G ----------------------------------(4)s(2)---|
D --0----------0---------0-----------0--------|
A --------------------------------------------|
E --------------------------------------------|   x12
play notes in brackets every 4th time

Pre chorus

e --2--------3p2-------2p0---------------------|
B ------3---------3----------3-----5s3---------|
G ---------------------------------------------|
D --0--------0---------0-----------0-----------|
A ---------------------------------------------|
E ---------------------------------------------|

e -------------3p2-------2p0------------------|
B ---------3---------3---------3-----5s3------|
G --------------------------------------------|
D --------------------------------------------|
A --0-2-3-------------------------------------|
E --------------------------------------------|

e -------------3p2-------2p0------------------|
B ---------3---------3---------3-----5s3------|
G --------------------------------------------|
D --------------------------------------------|
A ---2----------------------------------------|
E --------------------------------------------|

First time ending

e -----------------0--------------------------|
B -------------3------3-----------------------|
G ---------0-------------0--------------------|
D -----0--------------------------------------|
A --1-----------------------------------------|
E --------------------------------------------|

Second time end on Em

CHORUS

Bm - Em - G - D

Harmonics played at 10th fret - play every string but not high e

VERSE 2
The stabs at the end of each bar are Em chords

Bridge after break down

D - G x3
A - G

End on D picking all strings from high e to low D
            
Submit corrections



        Unwritten lessons Hard to play? Try these video lessons and learn fast Unwritten lessons
        
↑ Back to top | Tablatures and chords for acoustic guitar and electric guitar, ukulele, drums are parodies/interpretations of the original songs. You may use it for private study, scholarship, research or language learning purposes only