Home » M » My Vitriol »

My Vitriol - Grounded Tabs

Artists:  A B C D E F G H I J K L M N O P Q R S T U V W X Y Z # 

Grounded Tabs

(ver. 2) Click to play this song!
My Vitriol
 Rating:
4/5 (4 votes)
                Tuning: Standard with a Capo on 3rd fret 

Intro Guitar 1                                                      
E--||------0--0--1--1--------0--0--1--1--|
B--||0--0--0--0--1--1--0--0--0--0--1--1--|
G--||2--2--2--2--2--2--2--2--2--2--2--2--|
D--||2--2--4--4--3--3--2--2--4--4--3--3--|
A--||0--0--4--4--3--3--0--0--4--4--3--3--|
E--||------2--2--1--1--------2--2--1--1--|
    Guitar 2                                                            
E------------4-----------4--------------------|
B---5--5--5-----5--5--5-----1--1--1--1--------|
G---------------------------------------2--2--|
D---------------------------------------------|
A---------------------------------------------|
E---------------------------------------------|
     Verse Guitar 1                                                      
E------------------------------------------1--1--|
B------0--------0--------0--------------1--------|
G---------2--------2--------2--------2-----------|
D---------------------------------3--------------|
A---0--------0-----------------------------------|
E---------------------2--------1-----------------|
     Chorus Guitar 1                                                     
E---0--0--0--0--2--2--1--1--0--0--0--0--2--2--1--1--|
B---0--0--0--0--2--2--1--1--0--0--0--0--2--2--1--1--|
G---6--6--6--6--2--2--2--2--6--6--6--6--2--2--2--2--|
D---7--7--7--7--4--4--3--3--7--7--7--7--4--4--3--3--|
A---7--7--7--7--4--4--3--3--7--7--7--7--4--4--3--3--|
E---5--5--4--4--2--2--1--1--5--5--4--4--2--2--1--1--|
    Solo                                                                
E----------------------------4-----------4----------4-----------------
B-1--0--1--0--1--0-2b3r2-------5--2b3r2----5-2b3r2----5-5b6r5--3--2---
G---------------------------------------------------------------------
D---------------------------------------------------------------------
A---------------------------------------------------------------------
E---------------------------------------------------------------------

This is one of the best songs of the album and this tab is as good as it gets
            
Submit corrections

↑ Back to top | Tablatures and chords for acoustic guitar and electric guitar, ukulele, drums are parodies/interpretations of the original songs. You may use it for private study, scholarship, research or language learning purposes only