» » »

Mxpx - For Always Tabs

Artists:  A B C D E F G H I J K L M N O P Q R S T U V W X Y Z # 

For Always Tabs

(ver. 1) Click to play this song!
Mxpx
 Rating:
4/5 (4 votes)

 For Always lessons Tabs too difficult? Try these video lessons and learn fast
 
                Timing is off... just figure it out
*=Palm Mute

Intro

|-------------------------------------|
|-------------------------------------|
|-------------------------------------|
|4------------------------------------|  
|4------------------------------------|
|2------------------------------------|
                                       (x2)
|-------------------------------------|
|-------------------------------------|
|6------------------------------------|
|6------------------6-----------------|  
|4------------------6-----------------|
|-------------------4-----------------|

Verse 

|-------------------------------------|
|-------------------------------------|
|-------------------6--6-6666--6-6-66-|
|44444444444444444--6--6-6666--6-6-66-|  
|44444444444444444--4--4-4444--4-4-44-|
|22222222222222222--------------------|
 *****************
                                     (x2)
|-------------------------------------|
|-------------------------------------|
|6--6-6666--6-6-66--------------------|
|6--6-6666--6-6-66--------------------|  
|4--4-4444--4-4-44--------------------|
|-------------------------------------|

Bridge

|-------------------------------------|
|-------------------------------------|
|-------------------6--6-6666--6-6-66-|
|8--8-8888--8-8-88--6--6-6666--6-6-66-|  
|8--8-8888--8-8-88--4--4-4444--4-4-44-|
|6--6-6666--6-6-66--------------------|
                                       
|-------------------------------------|
|-------------------------------------|
|-------------------------------------|
|4--4-4444--4-4-44--6--6-6666--6-6-66-|  
|4--4-4444--4-4-44--6--6-6666--6-6-66-|
|2--2-2222--2-2-22--4--4-4444--4-4-44-|

Bridge to Hook

|-------------------------------------|
|-------------------------------------|
|-------------------6--6-6666--6-6-66-|
|8--8-8888--8-8-88--6--6-6666--6-6-66-|  
|8--8-8888--8-8-88--4--4-4444--4-4-44-|
|6--6-6666--6-6-66--------------------|

|-------------------------------------|
|-------------------------------------|
|-------------------------------------|
|44444444444-33333333333--66666666666-|  
|44444444444-33333333333--66666666666-|
|22222222222-11111111111--44444444444-|
 *********** ***********  ***********

|-------------------------------------|
|-------------------------------------|
|6--6-6666--6-6-66--6--6-6666--6-6-66-|
|6--6-6666--6-6-66--6--6-6666--6-6-66-|  
|4--4-4444--4-4-44--4--4-4444--4-4-44-|
|-------------------------------------|

Verse 

|-------------------------------------|
|-------------------------------------|
|-------------------6--6-6666--6-6-66-|
|44444444444444444--6--6-6666--6-6-66-|  
|44444444444444444--4--4-4444--4-4-44-|
|22222222222222222--------------------|
 *****************
                                     (x2)
|-------------------------------------|
|-------------------------------------|
|6--6-6666--6-6-66--------------------|
|6--6-6666--6-6-66--------------------|  
|4--4-4444--4-4-44--------------------|
|-------------------------------------|

Bridge

|-------------------------------------|
|-------------------------------------|
|-------------------6--6-6666--6-6-66-|
|8--8-8888--8-8-88--6--6-6666--6-6-66-|  
|8--8-8888--8-8-88--4--4-4444--4-4-44-|
|6--6-6666--6-6-66--------------------|
                                       
|-------------------------------------|
|-------------------------------------|
|-------------------------------------|
|4--4-4444--4-4-44--6--6-6666--6-6-66-|  
|4--4-4444--4-4-44--6--6-6666--6-6-66-|
|2--2-2222--2-2-22--4--4-4444--4-4-44-|

Bridge to Hook

|-------------------------------------|
|-------------------------------------|
|-------------------6--6-6666--6-6-66-|
|8--8-8888--8-8-88--6--6-6666--6-6-66-|  
|8--8-8888--8-8-88--4--4-4444--4-4-44-|
|6--6-6666--6-6-66--------------------|

|-------------------------------------|
|-------------------------------------|
|-------------------------------------|
|44444444444-33333333333--66666666666-|  
|44444444444-33333333333--66666666666-|
|22222222222-11111111111--44444444444-|
 *********** ***********  ***********

Breakdown

|-------------------------------------|
|-------------------------------------|
|6------------------------------------|
|6------------------------------------|  
|4------------------------------------|
|-------------------------------------|
                                       (x2)
|-------------------------------------|
|-------------------------------------|
|-------------------------------------|
|4------------------6-----------------|  
|4------------------6-----------------|
|2------------------4-----------------|

|-------------------------------------|
|-------------------------------------|
|-------------------------------------|
|4------------------------------------|  
|4------------------------------------|
|2------------------------------------|
                                       (x2)
|-------------------------------------|
|-------------------------------------|
|6------------------------------------|
|6------------------6-----------------|  
|4------------------6-----------------|
|-------------------4-----------------|

|-------------------------------------|
|-------------------------------------|
|-------------------------------------|
|44444444444-33333333333--66666666666-|  
|44444444444-33333333333--66666666666-|
|22222222222-11111111111--44444444444-|
 *********** ***********  ***********

|-------------------------------------|
|-------------------------------------|
|6--6-6666--6-6-66--6--6-6666--6-6-66-|
|6--6-6666--6-6-66--6--6-6666--6-6-66-|  (x4)
|4--4-4444--4-4-44--4--4-4444--4-4-44-|
|-------------------------------------|

End

|-------------------------------------|
|-------------------------------------|
|6------------------------------------|
|6------------------------------------|  
|4------------------------------------|
|-------------------------------------|
            
Submit corrections


        For Always lessons Hard to play? Try these video lessons and learn fast For Always lessons
        
↑ Back to top | Tablatures and chords for acoustic guitar and electric guitar, ukulele, drums are parodies/interpretations of the original songs. You may use it for private study, scholarship, research or language learning purposes only