» » »

Mr Hudson - Central Park Tabs

Artists:  A B C D E F G H I J K L M N O P Q R S T U V W X Y Z # 

Central Park Tabs

(ver. 1) Click to play this song!
Mr Hudson
 Rating:
3.7/5 (6 votes)


 Central Park lessons Tabs too difficult? Try these video lessons and learn fast
 
                -------------------------------------------------------------------------------
                             Cetral Park- Mr Hudson
-------------------------------------------------------------------------------

Tuning: eBGDE ~OR~ Half Step Down

Chords:
D- 000232
Dmaj7- 000222
D*- 000200
Bm- 224432
Em- 022000
A- 0022220

Intro/ Verse
  D             Dmaj7         D*           Dmaj7
e-------------------------------------------------------------------------|
A-------------------------------------------------------------X2----------|
D-0---0---------0---0---------0----0-------0---0--------------------------|
G---2-----2-------2-----2-------2----2-------2-----2----------------------|
B-3-----3-------2-----2-------0---0--------2-----2------------------------|
E-------------------------------------------------------------------------|

   Bm            Em            A             Em
e-------------------------------------------------------------------------|
A-2---2---------2---2---------0---0---------2---2-------------X2----------|
D---2-----2-------2-----2-------2-----2-------2-----2---------------------|
G-4-----4-------0-----0-------2-----2-------0-----0-----------------------|
B-------------------------------------------------------------------------|
E-------------------------------------------------------------------------|


Then Back to the D, Dmaj7, D* pattern and repeat.

Lyrics:
D         Dmaj7                   D*       D
First few horns and the squeak of brakes
D            Dmaj7             D*        D
Knock on the door and the city wakes

Bm   Em A  Em          Bm        Em   A   Em
But you, you're still sleeping
Bm   Em A  Em        Bm   Em A Em
And you, you're in love

D        Dmaj7    D*       D
Painting a pretty picture
D     Dmaj7          D*       D
How I wish, more of this were true

Bm   Em A  Em          Bm    Em   A   Em
But you, you're in London
Bm   Em A  Em          Bm     Em   A   Em
And you, you're still in love

Ect...

Enjoy :)


************************************

| /   slide up
| \   slide down
| h   hammer-on
| p   pull-off
| ~   vibrato
| +   harmonic
| x   Mute note
| b   Bend
| pb  Pre-bend
| br  Bend release
| pbr Pre-bend release
| brb Bend release bend

************************************
            
Submit corrections



        Central Park lessons Hard to play? Try these video lessons and learn fast Central Park lessons
        
↑ Back to top | Tablatures and chords for acoustic guitar and electric guitar, ukulele, drums are parodies/interpretations of the original songs. You may use it for private study, scholarship, research or language learning purposes only