Home » M » Mountain »

Mountain - You Cant Get Away Tabs

Artists:  A B C D E F G H I J K L M N O P Q R S T U V W X Y Z # 

You Cant Get Away Tabs

(ver. 1) Click to play this song!
Mountain
Tuning: standard

  intro

e|---------------------------------------------------------------------------|
B|-9--9--9--9------------9--9--9--9------------------------------------------|
G|-9--9--9--9--8---------9--9--9--9--8---------------------------------------|
D|-9--9--9--9--9---------9--9--9--9--9---------------------------------------|
A|-7--7--7--7--9---------7--7--7--7--9---------------------------------------|
E|-------------7---------------------7---------------------------------------|

   main riff
   
e|---------------------------------------------------------------------------|
B|---------------------------------------------------------------------------|
G|---------------------------------------------------------------------------|
D|---------------------5--7-7-7-5--------------------------------------------|
A|--5---7--7--5----0--------------7------------------------------------------|
E|---------------------------------------------------------------------------|

 verse

e|---------------------------------------------------------------------------|
B|--9--9---9--7--7---7------------9------------------------------------------|
G|--9--9---9--7--7---7--6--6---6--9------------------------------------------|
D|--9--9---9--7--7---7--7--7---7--9------------------------------------------|
A|--7--7---7--5--5---5--7--7---7--7------------------------------------------|
E|----------------------5--5---5---------------------------------------------|

 chorus

e|---5-----------------------------------------------------------------------|
B|---5-----------------------------------------------------------------------|
G|---6-----------------------------------------------------------------------|
D|---7-----------------------------------------------------------------------|
A|---7-----------------------------------------------------------------------|
E|---5-----------------------------------------------------------------------|

            
Submit corrections

↑ Back to top | Tablatures and chords for acoustic guitar and electric guitar, ukulele, drums are parodies/interpretations of the original songs. You may use it for private study, scholarship, research or language learning purposes only