» » »

Morrissey - Yes I Am Blind Bass

Artists:  A B C D E F G H I J K L M N O P Q R S T U V W X Y Z # 

Yes I Am Blind Bass

(ver. 1) Click to play this song!
Morrissey
 Rating:
4/5 (4 votes)


 Yes I Am Blind lessons Tabs too difficult? Try these video lessons and learn fast
 
                Yes, I Am Blind
Morrissey

Main Riff
G |--------------------------------|--------------------------------|
D |---------------------4-----6----|--------------------------------|
A |-6------------------------------|-5-------------------1-----3----|
E |--------------------------------|--------------------------------|

G |--------------------------------|--------------------------------|
D |---------------------1-----3----|--------------------------------|
A |-4------------------------------|-2---------------1--------------|
E |--------------------------------|--------------------------------|

G |--------------------------------|--------------------------------|
D |--------------------------------|--------------------------------|
A |-4------------------------------|-4------------------------------|
E |--------------------------------|-----------------2--------------|

Ending A
G |--------------------------------|--------------------------------|
D |-----------------------------1--|--------------------------------|
A |-----------------------0-1-2----|--------------------------------|
E |-4------------------------------|-0---------------2--------------|

Break
G |--------------------------------|--------------------------------|
D |--------------------------------|---------------------4-----3----|
A |--------------------------------|--------------------------------|
E |--------------------------------|--------------------------------|

Ending B
G |--------------------------------|--------------------------------|
D |--------------------------------|--------------------------------|
A |--------------------------------|-4------------------------------|
E |-4------------------------------|---------------------------4----|

Pre-Bridge
G |--------------------------------|
D |--------------------------------|
A |--------------------------------|
E |-6------------(6)----6----6-----|

Bridge
G |--------------------------------|--------------------------------|
D |--------------------------------|--------------------------------|
A |-6----6----6----6----6----6-----|--------------------------------|
E |--------------------------------|-4----4----4----4----4----4-----|

G |--------------------------------|--------------------------------|
D |--------------------------------|--------------------------------|
A |-4----4----4----4----4----4-----|--------------------------------|
E |--------------------------------|-2----2----2----2----2----2--x--|

Ending C
G |--------------------------------|--------------------------------|
D |---------------------------2----|--------------------------------|
A |-----------------------2--------|--------------------------------|
E |-4------------------------------|-0---------------2--------------|

Ending D
G |--------------------------------|--------------------------------|
D |--------------------------------|--------------------------------|
A |-----------------------1---2----|-4---------------5^6---5^6------|
E |-4------------------------------|-----------------------------6--|

Outro
G |--------------------------------|--------------------------------|
D |--------------------------------|--------------------------------|
A |-4------------------------------|-4------------------------------|
E |--------------------------------|-----------------2--------------|

G |--------------------------------|--------------------------------|
D |--------------------------------|--------------------------------|
A |--------------------------------|--------------------------------|
E |-4------------------------------|-0---------------2--------------|

Order:
[00:00] Main Riff | Ending A  (Yes I am blind...)
[00:18] Main Riff | Ending A* (Yes I am blind...)
[00:36] Break
[00:40] Main Riff | Ending B (Instrumental)
[01:00] Pre-Bridge | Bridge (God come down...)

[01:11] Main Riff | Ending C  (Love's young dream...)
[01:29] Main Riff | Ending A* (Love's young dream...)
[01:46] Break
[01:51] Main Riff | Ending D (Yes I am blind...)
[02:09] Pre-Bridge | Bridge (God come down)

[02:23] Main Riff | Ending A (Little lamb...)
[02:41] Outro 8x (You're just like me...)


 


 
            
Submit corrections



        Yes I Am Blind lessons Hard to play? Try these video lessons and learn fast Yes I Am Blind lessons
        
↑ Back to top | Tablatures and chords for acoustic guitar and electric guitar, ukulele, drums are parodies/interpretations of the original songs. You may use it for private study, scholarship, research or language learning purposes only