» » »

Monster Magnet - Powertrip Tabs

Artists:  A B C D E F G H I J K L M N O P Q R S T U V W X Y Z # 

Powertrip Tabs

(ver. 2) Click to play this song!
Monster Magnet
 Rating:
4/5 (6 votes)

 Powertrip lessons Tabs too difficult? Try these video lessons and learn fast
 
                -------------------------------------------------------------------------------
                             POWERTRIP - Monster Magnet
-------------------------------------------------------------------------------

Tuning: DGEFAD

This is my first tab, so there could be mistakes here and there.
I only have the first Riff of the song tabbed, though.

This is played clean, not too much distortion.
|---------------|
|---------------|
|8-66-8-66-8-66-|
|8-66-8-66-8-66-|
|6-44-6-44-6-44-|
|---------------|

During the "Who's gonna show you how to fly?" part, play:

|-----------------------|
|-----------------------|
|8-66-8-66-8-66-4--44444|
|8-66-8-66-8-66-4--44444|
|6-44-6-44-6-44-2--22222|
|-----------------------|

|------------------------------------|
|------------------------------------|
|8-66-8-66-8-66-4--444----6--666----8|
|8-66-8-66-8-66-4--444-44-6--666-66-8|
|6-44-6-44-6-44-2--222-44-4--444-66-6|
|----------------------22--------44--|

Just let that last power chord ring.

After that, play this one section in distortion until the song changes to the next riff.
|------------------------------------|
|------------------------------------|
|8-66-8-66-8-66-4--444----6--666----8|
|8-66-8-66-8-66-4--444-44-6--666-66-8|
|6-44-6-44-6-44-2--222-44-4--444-66-6|
|----------------------22--------44--|

That's all I have right now.
            
Submit corrections


        Powertrip lessons Hard to play? Try these video lessons and learn fast Powertrip lessons
        
↑ Back to top | Tablatures and chords for acoustic guitar and electric guitar, ukulele, drums are parodies/interpretations of the original songs. You may use it for private study, scholarship, research or language learning purposes only