» » »

Monkey Majik - Change Tabs

Artists:  A B C D E F G H I J K L M N O P Q R S T U V W X Y Z # 

Change Tabs

(ver. 1) Click to play this song!
Monkey Majik
 Rating:
4/5 (6 votes)

 Change lessons Tabs too difficult? Try these video lessons and learn fast
 
                ok, the rift is the same the whole song, even through the rap.

e--8------------7-------------5-------------5-------------|
B--10-----------8-------------6-------------5-------------|
G--9-----x2-----9------x2-----7------x2-----6------x2-----|
D--10-----------9-------------7-------------7-------------|
A--8------------7-------------5-------------7-------------|
E--8------------7-------------5-------------5-------------|


there is a guitar part at the chorus, but i can't hear it over the shamisen. But if you 
play this, it will sound fine.

e---------------------|
B---10~~~~~~~~~~~~~~~~|
G---------------------|
D---------------------|
A---------------------|
E---------------------|


hope its ok

monkey majik is a japanese band, but the two lead singers are canadian but can speak 
japanese
            
Submit corrections


        Change lessons Hard to play? Try these video lessons and learn fast Change lessons
        
↑ Back to top | Tablatures and chords for acoustic guitar and electric guitar, ukulele, drums are parodies/interpretations of the original songs. You may use it for private study, scholarship, research or language learning purposes only