» » »

Modest Mouse - World At Large Bass

Artists:  A B C D E F G H I J K L M N O P Q R S T U V W X Y Z # 

World At Large Bass

(ver. 2) Click to play this song!
Modest Mouse
 Rating:
4/5 (4 votes)


 World At Large lessons Tabs too difficult? Try these video lessons and learn fast
 
                Tuning:  standard (eadg)

Originally, there isn't any bass in this song.  This is the order of the song.

Intro & Verse 1
G|11~---11-10~---10-8~---8\6~--6/|
D|-------------------------------|4x
A|-------------------------------|
E|-------------------------------|

G|11-11-11-11-11-11-11-11--10-10-10-10-10-10-10-10--------------------|
D|--------------------------------------------------99999999--8888888\|
A|--------------------------------------------------------------------|
E|--------------------------------------------------------------------|

pre-verse 2 & verse 2
G|--------------------------------|  |--------------------------------|
D|4x4x--3x3x3x3x--1x1x------------|2x|4x4x--3x3x3x3x------------------|1x
A|----------------------4x4x4x4x--|  |----------------2x2x--1x1x1x1x--|
E|--------------------------------|  |--------------------------------|

G|--------------------------------|  |--------------------------------|
D|4x4x--3x3x3x3x--1x1x------------|1x|4x4x--3x3x3x3x------------------|1x
A|----------------------4x4x4x4x--|  |----------------2x2x--1x1x1x1x--|
E|--------------------------------|  |--------------------------------|

G|---------------------------------|
D|4x4x--3x3x3x3x-------------------|1x
A|----------------2x2x--1x1x1x1x-1/|
E|---------------------------------|

pre-verse 3 & verse 3
G|-------------------------|  |------------------|  
D|-------------------------|2x|------------------|1x
A|9~---98~---86~---6\4~--4/|  |9~---98~---8------|  
E|-------------------------|  |------------7~---6|  

G|-------------------------|  |------------------------|
D|-------------------------|1x|------------------------|1x
A|9~---98~---86~---6\4~--4/|  |9~---98~---8------------|
E|-------------------------|  |------------7~---76~--6/|

end
G|-----------------------|  
D|-----------------------|2x
A|-----------------------|  
E|14~---13~---11~---9~---|  

G|-------------------------------------------------------------------------|
D|-------------------------------------------------------------------------|
A|-------------------------------------------------------------------------|
E|14-14-14-14-14-14-14-14--13-13-13-13-13-13-13-13--11-11-11-11-11-11-11-11|

G|----------|  |------------------------------------|
D|----------|2x|------------------------------------|
A|----------|  |------------------------------------|
E|--9999999/|  |14~---14\13~---13\11~---11\9~--9/14~|

| /  slide up
| \  slide down
| h  hammer-on
| p  pull-off
| ~  vibrato
| +  harmonic
| x  Mute note
=============================================================================
            
Submit corrections



        World At Large lessons Hard to play? Try these video lessons and learn fast World At Large lessons
        
↑ Back to top | Tablatures and chords for acoustic guitar and electric guitar, ukulele, drums are parodies/interpretations of the original songs. You may use it for private study, scholarship, research or language learning purposes only