» » »

Modest Mouse - One Chance Bass

Artists:  A B C D E F G H I J K L M N O P Q R S T U V W X Y Z # 

One Chance Bass

(ver. 1) Click to play this song!
Modest Mouse
 Rating:
4/5 (4 votes)


 One Chance lessons Tabs too difficult? Try these video lessons and learn fast
 
                Copyright 2004 Sony Music Entertainment

Play the brackets on the second repetiton only

Intro

G|------------------------------------|
D|------------7--------9-7------------|		x2
A|-10~-(10)-9---7~-(7)-----10~-7-9-10-|
E|------------------------------------|


Verse

G|----------7---------------7~---7-9--12~|
D|--------9---9------7-9-------9----9----|    	x3
A|-10~-10-------7~-7-----10--------------|
E|---------------------------------------|


G|----------7---------------7~---7-9--12-------|
D|--------9---9------7-9-------9----9----12----|    	x1
A|-10~-10-------7~-7-----10-----------------10-|
E|---------------------------------------------|


Chorus

G|------------------------------------|
D|------------7--------9-7------------|		x2
A|-10~-(10)-9---7~-(7)-----10~-7-9-10-|
E|------------------------------------|


Bridge

G|--------------------------------------------------------------|
D|---------------------------------------------------------7----|	x2
A|--10-10-10-10-10-10-10-10-10-10-10-10-10-10-10-10-10-7-9---10~|  
E|--------------------------------------------------------------|


Chorus

G|-----------------------------------|
D|------------7--------9-7-----------|		x2
A|-10~-(10)-9---7~-(7)-----10~-7-9-10|
E|-----------------------------------|


Verse (with stagger)

G|------------------------------------7~--|
D|-------7~---------------7~---7--9-------|	x1
A|-----9----9------7-9-------9------9-----|
E|-10~--------7~-7-----10-----------------|


Verse

G|----------7---------------7~---7-9--12~|
D|--------9---9------7-9-------9----9----|    	x3
A|-10~-10-------7~-7-----10--------------|
E|---------------------------------------|


G|----------7---------------7~---7-9--12-------|
D|--------9---9------7-9-------9----9----12----|    	x1
A|-10~-10-------7~-7-----10-----------------10-|
E|---------------------------------------------|
            
Submit corrections



        One Chance lessons Hard to play? Try these video lessons and learn fast One Chance lessons
        
↑ Back to top | Tablatures and chords for acoustic guitar and electric guitar, ukulele, drums are parodies/interpretations of the original songs. You may use it for private study, scholarship, research or language learning purposes only