» » »

Modest Mouse - Ocean Breathes Salty Bass

Artists:  A B C D E F G H I J K L M N O P Q R S T U V W X Y Z # 

Ocean Breathes Salty Bass

(ver. 3) Click to play this song!
Modest Mouse
 Rating:
4/5 (4 votes)


 Ocean Breathes Salty lessons Tabs too difficult? Try these video lessons and learn fast
 
                INTRO
G|-----------------------|
D|-------55-45---------5-|
A|-33-2--------33-2-0----|
E|-----3-------------3---| x2

VERSE
G|---------------------------------|
D|-------55-45--1010/97--7---------|
A|-33-2----------------10-1010/97--|
E|-----3-------------------------8-| x2

CHORUS                                         (skip this the 
                                                second time)
G|----------------------------------------------|---------|
D|-101010-10h12--9--777-7h9-5----5-----5--5h7---|---------|
A|-------------10----------7---33--77-7------88-|-88-88h10|
E|----------------------------------------------|---------| x2 

verse x2
rest
chorus x4 (do not skip ending on any)
rest

BRIDGE 
G|---------------------------------|
D|-------55-45--99-1012------------|
A|-33-2-----------------1010-910---|
E|-----3---------------------------|

G|----------------------99-----------|
D|-------55-45--99-1012----12-9------|
A|-33-2------------------------------|
E|-----3-----------------------------|

repeat bridge
chorus x2 (skip ending second time)

thats it.
            
Submit corrections



        Ocean Breathes Salty lessons Hard to play? Try these video lessons and learn fast Ocean Breathes Salty lessons
        
↑ Back to top | Tablatures and chords for acoustic guitar and electric guitar, ukulele, drums are parodies/interpretations of the original songs. You may use it for private study, scholarship, research or language learning purposes only