» » »

Misfits - Horror Business Bass

Artists:  A B C D E F G H I J K L M N O P Q R S T U V W X Y Z # 

Horror Business Bass

(ver. 1) Click to play this song!
Misfits
 Rating:
4/5 (4 votes)


 Horror Business lessons Tabs too difficult? Try these video lessons and learn fast
 
                verse A

G---------------------------|
D---------------------------|
A---------------------------|
E--6-5-33-6-3-33-6-3-66-55--|

verse B x5

G------------------------------|
D------------------------------|
A------------------------------|
E--33-6-3-33-6-3-33-6-3-66-55--|

bridge

G------------------------|
D------------------------|
A------------------------|
E--666666-555555-888888--|

verse A

verse B x5

bridge

chorus x4

G-------------------------------------|
D-------------------------------------|
A--8-888888---------------------------|
E-----------8-888888-6-666666-8-888888|

verse A

verse B x5

bridge

verse A

verse B x5

bridge

chorus x9
            
Submit corrections



        Horror Business lessons Hard to play? Try these video lessons and learn fast Horror Business lessons
        
↑ Back to top | Tablatures and chords for acoustic guitar and electric guitar, ukulele, drums are parodies/interpretations of the original songs. You may use it for private study, scholarship, research or language learning purposes only