Home » M » Misc Unsigned Bands »

Misc Unsigned Bands - 2022 Phan Song Tabs

Artists:  A B C D E F G H I J K L M N O P Q R S T U V W X Y Z # 

2022 Phan Song Tabs

(ver. 1) Click to play this song!
Misc Unsigned Bands
VERSE

        D                     G                       A
e|-------2--------2-------------------------------------------------|
B|----3-----3------------------0--------0------------2--------2-----|
G|-------------------------0------0---------------2-----2-----------|
D|-0-----------0----------------------------------------------------|
A|---------------------2-------------2---------0-----------0--------|
E|------------------------------------------------------------------| REPEAT x4

CHORUS
    D
You hold me in your arms
   bm
And I'll hold you back
        A
As the dark sky
         
Fades to black 

   D
My tired eyes are 
bm
Blinded by the
A
Fairy lights

    G
How far would I have gotten
   D
Without you here
bm
But times have been forgotten

For years and years

   C
My life is beginning 
   A
To piece together with you
   G               D
I could've made it on my own
bm
But you were like
   A
My stepping stones
C
I'm looking forward
   A
To 2022

e|-2---0-----|
B|---3---0---|
G|-----------|
D|-----------|
A|-----------|
E|-----------|

With you

VERSE

e|-------2--------2-------------------------------------------------|
B|----3-----3------------------0--------0------------2--------2-----|
G|-------------------------0------0---------------2-----2-----------|
D|-0-----------0----------------------------------------------------|
A|---------------------2-------------2---------0-----------0--------|
E|------------------------------------------------------------------| REPEAT x4

CHORUS 

    D
You hold me in your arms
   bm
And I'll hold you back
        A
As the dark sky
         
Fades to black 

   D
My tired eyes are 
bm
Blinded by the
A
Fairy lights

    G
How far would I have gotten
   D
Without you here
bm
But times have been forgotten
    A
For years and years

   C
My life is beginning 
   A
To piece together with you
   G               D
I could've made it on my own
bm
But you were like
   A
My stepping stones
C
I'm looking forward
   A
To 2022

With you 

REPEAT

    D
You hold me in your arms
   bm
And I'll hold you back
        A
As the dark sky
         
Fades to black 

   D
My tired eyes are 
bm
Blinded by the
A
Fairy lights

    G
How far would I have gotten
   D
Without you here
bm
But times have been forgotten

For years and years

   C
My life is beginning 
   A
To piece together with you
   G               D
I could've made it on my own
bm
But you were like
   A
My stepping stones
C
I'm looking forward
   A
To 2022

With you

BRIDGE 

C, bm, D, F, C, G

    D
You hold me in your arms
   bm
And I'll hold you back
        A
As the dark sky
         
Fades to black 

   D
My tired eyes are 
bm
Blinded by the
A
Fairy lights

    G
How far would I have gotten
   D
Without you here
bm
But times have been forgotten
    A
For years and years

   C
My life is beginning 
   A
To piece together with you
   G               D
I could've made it on my own
bm
But you were like
   A
My stepping stones
C
I'm looking forward
   A
To 2022

With you 

REPEAT

    D
You hold me in your arms
   bm
And I'll hold you back
        A
As the dark sky
         
Fades to black 

   D
My tired eyes are 
bm
Blinded by the
A
Fairy lights

    G
How far would I have gotten
   D
Without you here
bm
But times have been forgotten

For years and years

   C
My life is beginning 
   A
To piece together with you
   G               D
I could've made it on my own
bm
But you were like
   A
My stepping stones
C
I'm looking forward
   A
To 2022

e|-2---0-----|
B|---3---0---|
G|-----------|
D|-----------|
A|-----------|
E|-----------|

With you


VERSE

e|-------2--------2-------------------------------------------------|
B|----3-----3------------------0--------0------------2--------2-----|
G|-------------------------0------0---------------2-----2-----------|
D|-0-----------0----------------------------------------------------|
A|---------------------2-------------2---------0-----------0--------|
E|------------------------------------------------------------------| REPEAT x1

OUTRO (not totally sure about this part)
 
     G       A        bm       D        G          C       A
e|-------------------------------------------------------------------------|
B|-----0-------2--------3--------3--------0---------1--------2--------------------|
G|---0-------2--------4--------2--------0---------0--------2-----------------------|
D|------------------------------------------------------------------------|
A|--2-------0--------2-------0--------2---------3--------0-----------------------|
E|---------------------------------------------------------------------------| 

    G
With you



            
Submit corrections

↑ Back to top | Tablatures and chords for acoustic guitar and electric guitar, ukulele, drums are parodies/interpretations of the original songs. You may use it for private study, scholarship, research or language learning purposes only