» » »

Misc Television - South Park Lemmiwinks Tabs

Artists:  A B C D E F G H I J K L M N O P Q R S T U V W X Y Z # 

South Park Lemmiwinks Tabs

(ver. 1) Click to play this song!
Misc Television
 Rating:
4/5 (4 votes)


 South Park Lemmiwinks lessons Tabs too difficult? Try these video lessons and learn fast
 
                E----2------6-----4-----4-----------------
B----2------7-----4-----6-----------------
G----3------8-----4-----6-----------------   Riff 1
D----4------8-----6-----6-----------------
A----4---6--------6--4--------------------
E-2------------4--------------------------

E----2------2-----2-----2-----2-----6---------2---
B----2------2-----0-----0-----2-----7---------2---
G----3------3-----2-----2-----3-----8-----6---3---  Riff 2
D----4---2--2--1--1--0--0-----4-----8--6--6---4---
A----4------4-----2-----2-----4--6-----6--4---4---
E-2---------2--------------2-----------4------2---

E--2---------------------------------
B--2--------------------------------- Sparrow Print Bit
G--2--------------------------------- Repeat this chord
D--4---------------------------------
A--4---------------------------------
E--2---------------------------------

E--0------0----------0-----------------------------0-
B--0------0----------1-------------------------1---0- Cattatafish
G--0------0--------2--------0----4---0------2------0-  Part
D--2------2------2--------2---4----4------2--------2-
A--2------2----0--------0---------------0----------2-
E--0------0----------------------------------------0-

E---2-----7-----5-----5-----3-----3-----3-----3--
B---2-----8-----5-----7-----3-----3-----3-----3--
G---4-----9-----5-----7-----4-----4-----0-----0--  End Part 1 of 2
D---5-----9-----7-----7-----5--3--3--2-----1-----
A---5--7--------7--5--------5-----5--------------
E-3----------5-----------3-----------------------

E-----3-----7---------3---3---3-----------------
B-----3-----8---------3---3---3--"---"---"---"--
G-----4-----9-----7---4---4---4-----------------  End Part 2 of 2
D-----5-----9--7--7---5---5---5-----------------
A-----5--7-----7--5---5---5---5--"---"---"---"--
E--3-----------5------3---3---3-----------------


This is the Lemmiwinks song from South Park. Enjoy. I know it isn't
correct, but I only heard this song tonight. It's a funny god damn 
song. Buy or download it today. By Scott Jenkins. (.)(.)
            
Submit corrections



        South Park Lemmiwinks lessons Hard to play? Try these video lessons and learn fast South Park Lemmiwinks lessons
        
↑ Back to top | Tablatures and chords for acoustic guitar and electric guitar, ukulele, drums are parodies/interpretations of the original songs. You may use it for private study, scholarship, research or language learning purposes only