» » »

Misc Television - Maid Marion Tabs

Artists:  A B C D E F G H I J K L M N O P Q R S T U V W X Y Z # 

Maid Marion Tabs

(ver. 1) Click to play this song!
Misc Television
 Rating:
4/5 (4 votes)
                Maid Marion  - Clannad
~~~~~~~~~~~

Here are the basics.  This is a really good tune to just play around with
the fingerpicking.  Instead of plain chords as written here, try arpeggios
and other ways of playing the accompaniment.  The ending is not the same as
Clannads, but its the way I like to do it.

3/4 time, beats marked below the tablature.

   $
   Dm              Gm             Am            Bb               Am
||-----1-----3s5-|-3------------|-------------|----------------|------------  
 -|
||-3-------------|-3--6-3-------|-1-------1---|-3-------1h3p1--|-1----------  
 -|
||-2-------------|-3------------|-2---2-------|-3------------3-|-2---2-----2  
 -|
||-0-------------|--------------|-2-----------|-3--------------|-2----------  
 -|
||---------------|--------------|-0-----------|-1--------------|-0----------  
 -|
||---------------|-3------------|-------------|----------------|------------  
 -|
   .   .   .       .    .   .     .   .   .     .   .   .        .   .   .

  Em            F            F            Dm              Gm
|-------------|------------|------------|-----1-----3s5-|-3-------------|
|-------------|------------|------------|-3-------------|-3--6-3--------|
|-0-------0---|-2----------|------------|-2-------------|-3-------------|
|-2---2-------|-3----------|------------|-0-------------|---------------|
|-2-----------|-3----------|------------|---------------|---------------|
|-0-----------|-1----------|-1----------|---------------|-3-------------|
  .   .   .     .   .   .    .   .   .    .   .   .       .    .   .

  Am            Bb               Am             Em            F
|-------------|----------------|--------------|-------------|--------------|
|-1-------1---|-3-------1h3p1--|-1------------|---------0---|--------------|
|-2---2-------|-3------------3-|-2---2-----2--|-0-----------|-2------------|
|-2-----------|-3--------------|-2------------|-2---2-------|-3------------|
|-0-----------|-1--------------|-0------------|-2-----------|-3------------|
|-------------|----------------|--------------|-0-----------|-1------------|
  .   .   .     .   .   .        .   .   .      .   .   .     .   .   .

       To Coda
  Gsus4         Am            G              C                G/B
|------------||-0---------1-|-0------------|-0-------1p0----|---3---------|
|-1----------||-1-----------|-0--3-1---0---|-1----------3p1-|-3-----------|
|-0----------||-2-----------|-0------------|-0--------------|-0-----------|
|-0----------||-------------|--------------|----------------|-0-----------|
|------------||-0-----------|--------------|-3--------------|-2-----------|
|-3----------||-------------|-3------------|----------------|-------------|
  .   .   .     .   .   .     .    .   .     .   .   .        .   .   .

  Dm            Em7                F              F
|-5-------5---|-10-----12-10-----|--8-----------|-------------||
|-6-----8-----|--0-----------12--|--------------|-------------||
|-7-----------|--0---------------|-10-----------|-------------|| D.S. $
|-0-----------|------------------|-10-----------|-------------|| al Coda
|-------------|--7---------------|--8-----------|-------------||
|-------------|------------------|--------------|-1-----------||
  .   .   .      .    .    .        .   .   .     .   .   .

   Coda
   G               A5
||---------------|--------------||
||-0-------------|--------------||
||-0---------2p0-|-2------------|| Fine.
||-0-------------|-2------------||
||---------------|-0------------||
||-3-------------|--------------||
   .   .   .       .   .   .
            
Submit corrections

↑ Back to top | Tablatures and chords for acoustic guitar and electric guitar, ukulele, drums are parodies/interpretations of the original songs. You may use it for private study, scholarship, research or language learning purposes only