» » »

Misc Television - Doctor Who Bass

Artists:  A B C D E F G H I J K L M N O P Q R S T U V W X Y Z # 

Doctor Who Bass

(ver. 1) Click to play this song!
Misc Television
 Rating:
4/5 (4 votes)
                (Theme)
TV program: Doctor Who

G---------------------------------------------------------------|
D---------------------------------------------------------------|
A-0--0-0-0-0-0--0--0-0-0-0-0--0--0-0-0-0-0--0--0-0-0-3--3-3-3-3-|
E---------------------------------------------------------------|

G---------15-14~~~~17-12-14~~~14-------------------|
D-12-----------------------------15----------------|
A ----------------------------------12~~15- 13-12~-|
E--------------------------------------------------|


This one is for all us Doctor Who fans out there!

Please rate and comment!
            
Submit corrections

↑ Back to top | Tablatures and chords for acoustic guitar and electric guitar, ukulele, drums are parodies/interpretations of the original songs. You may use it for private study, scholarship, research or language learning purposes only