» » »

Misc Television - Bob The Builder Tabs

Artists:  A B C D E F G H I J K L M N O P Q R S T U V W X Y Z # 

Bob The Builder Tabs

(ver. 1) Click to play this song!
Misc Television
 Rating:
4/5 (4 votes)
    Bob The Builder lessons Tabs too difficult? Try these video lessons and learn fast
                Bob the Builder Theme Tune

This version is taken from the BBC single 2000.
Bob the Builder is a working class hero.

Notation Legend:

Figures in Brackets e.g. [777] are palm muted
e stands for 11th fret
~ stands for vibrato


E ------------------------------------
B ------------------------------------
G ------------------------------------
D -[99999999999999999999999999999999]-
A -[77777777777777777777777777777777]-
E -[00000000000000000000000000000000]-

E -----------------------------------------------
B -----------------------------------------------
G -----------------------------------------------
D -9--9-e--9-e--9--------------9--9-e-9-e-9------
A -7--7-7--7-7--7---777--999---7--7-7-7-7-7-99-2-
E ------------------555--777----------------77-0-


Chorus Riff
E ----------------------------------------
B ----------------------------------------
G ----------------------------------------
D --9--9999------------9--9999------------
A --7--7777--777--999--7--7777--777--999--
E -----------555--777-----------555--777--

Verse Riff x2
E -00--00--00--00--00--00-----0-00-0-
B -22--00--22--00--22--00--44-0-00-0-
G -22--11--22--11--22--11--44---11---
D -22--22--22--22--22--22--44---22---
A -00--22--00--22--00--22--22---22---
E -----00------00------00-------00---

Chorus Riff x2
Verse Riff x2
Chorus x2

Quiet with no guitar for a bit.
Then.......

E ----------------------------------
B ----------------------------------
G --7~~~------------7~~~------------
D --------9-99999---------9-99999---
A ----------------------------------
E ----------------------------------

E ------------------------------------
B -------------------------------eeee-
G -------6666------6666--9999999-eeee-
D --6666-6666-6666-6666--9999999-9999-
A --6666-4444-6666-4444--7777777------
E --4444------4444--------------------

E ------------------------------------
B ------------------------------------ Play this part
G ------------------------------------ like Pete 
D -9999999999999999999999999999999999- Townsend. Up &
A -7777777777777777777777777777777777- down fast 
E -0000000000000000000000000000000000- strumming.


Chorus riff x2
Verse riff x2

E ------------------------------------
B ------------------------------------ Play this the 
G ------------------------------------ same as above.
D -eeeeeeeeeeeeeeeeeeeeeeeeeeeeeeeeee-
A -9999999999999999999999999999999999-
E -0000000000000000000000000000000000-

E ------------------------------------
B ------------------------------------
G ------------------------------------
D -e--(hold this chord----------------
A -9---for a while)-------------------
E -0----------------------------------

E ------------------------------------------
B ------------------------------------------
G ------------------------------------------
D -eee---------eeeeee-------eee---------eee-
A -999--99-ee--999999-------999--77-99--999-
E ------77-99---------9-7-5------55-77------

E ------------------------------------------
B ------------------------------------------
G ------------------------------------------
D ---------eee---------eee------------------
A --77-99--999--77-99--999------------------
E --55-77-------55-77-------9-7-5-2~~-------
            
Submit corrections

↑ Back to top | Tablatures and chords for acoustic guitar and electric guitar, ukulele, drums are parodies/interpretations of the original songs. You may use it for private study, scholarship, research or language learning purposes only