» » »

Misc Soundtrack - Star Wars 2nd Tabs

Artists:  A B C D E F G H I J K L M N O P Q R S T U V W X Y Z # 

Star Wars 2nd Tabs

(ver. 1) Click to play this song!
Misc Soundtrack
 Rating:
4/5 (4 votes)


 Star Wars 2nd lessons Tabs too difficult? Try these video lessons and learn fast
 
                (Theme)
It's the most dramatic Star Wars song I know. 
Be sure not to drop a tear as you play it!
Enjoy!

Guitar DK


STAR WARS 2nd THEME


e----|:-----------1-----------|---------------3-1---3-|
B----|:-1---3---4---4---------|-1---3-4-1-4-1---------|
G--0-|:-----------------0---0-|-----------------------|
D----|:-----------------------|-----------------------|
A----|:-----------------------|-----------------------|
E----|:-----------------------|-----------------------|

e----------------3-------|-------3---------------:|
B--1---3-4-1-4-1-----1---|-4-3-1-----4-1---------:|
G------------------------|---------------0---0---:|
D------------------------|-----------------------:|
A------------------------|-----------------------:|
E------------------------|-----------------------:|

play the above part 2 times, then:

e------------------------||
B---1--------------------||
G------------------------||
D------------------------||
A------------------------||
E------------------------||


The interval between the notes is indicated by the space between the numbers.

Have fun!
            
Submit corrections



        Star Wars 2nd lessons Hard to play? Try these video lessons and learn fast Star Wars 2nd lessons
        
↑ Back to top | Tablatures and chords for acoustic guitar and electric guitar, ukulele, drums are parodies/interpretations of the original songs. You may use it for private study, scholarship, research or language learning purposes only