» » »

Misc Soundtrack - Fletch Theme Tune Tabs

Artists:  A B C D E F G H I J K L M N O P Q R S T U V W X Y Z # 

Fletch Theme Tune Tabs

(ver. 1) Click to play this song!
Misc Soundtrack
 Rating:
4/5 (4 votes)
                
By Shadystraz

This is the theme tune to the classic film "Fletch".
I've noticed that there is no actual tab for this 
except for Guitar Pro so I've decided to tab it out 
for you on standard Guitar.
It's pretty much accurate if there is any miss notes
then you can let me know via e-mail but it sounds
pretty close to me.

This is a great piece to play. 
Standard Tuning
E, A, D, G, B, E

HAVE FUN!

(~) :Vibrate note:
(*) :Sustain Note:

PART A
E----7---9---10--7--|------------------|
B--7---7---7--------|------------------|
G-------------------|----7---9---11----|
D-------------------|--9---9---9----9--|
A-------------------|------------------|
E-------------------|------------------|

------------------------------------------------|
------------------------------------------------|
------------------------------------------------|
----9---11---12-14~--12-11-12~--11-9----7-9--9--|
--9---9----9------------------------------------|
------------------------------------------------|

----------------------|------------------|
----12---14---15--12--|------------------|
--9----9----9---------|----7---9---11----|
----------------------|--9---9---9----9--|
----------------------|------------------|
----------------------|------------------|

-------------------------------------------------------|
-------------------------------------------------------|
----------12-9-14-16~-----------------------9-11~--11--|
-14~--16---------------9-11-9-14-9-11-12~--------------|
-------------------------------------------------------|
-------------------------------------------------------|

PART B
E--10-9---10---9---10-9---10---9-10-10--|
B---------------------------------------|
G---------------------------------------|
D---------------------------------------|
A---------------------------------------|
E---------------------------------------|

                              (BEND)
--10-9---10---9---10----12----15(17)*--|
---------------------------------------|
---------------------------------------|
---------------------------------------|
---------------------------------------|
---------------------------------------|

E--10-9---10---9---10-9---10---9-10-10--|
B---------------------------------------|
G---------------------------------------|
D---------------------------------------|
A---------------------------------------|
E---------------------------------------|

                              
--10-9---10---9---10----12------------|
--------------------------------------|
--------------------------------------|
--------------------------------------|
--------------------------------------|
--------------------------------------|

-19-19-19-19-19-19----|
----------------------|
----------------------|
----------------------|
----------------------|
----------------------|

--10-9---10---9---10-9---10---9-10-10--|
---------------------------------------|
---------------------------------------|
---------------------------------------|
---------------------------------------|
---------------------------------------|

                              (BEND)
--10-9---10---9---10----12----15(17)*--|
---------------------------------------|
---------------------------------------|
---------------------------------------|
---------------------------------------|
---------------------------------------|

E--10-9---10---9---10-9---10---9-10-10--|
B---------------------------------------|
G---------------------------------------|
D---------------------------------------|
A---------------------------------------|
E---------------------------------------|
                              
--10-9---10---9---10----12------------|
--------------------------------------|
--------------------------------------|
--------------------------------------|
--------------------------------------|
--------------------------------------|

just keep repeating each part as it comes


Shadystraz
            
Submit corrections

↑ Back to top | Tablatures and chords for acoustic guitar and electric guitar, ukulele, drums are parodies/interpretations of the original songs. You may use it for private study, scholarship, research or language learning purposes only