» » »

Misc Soundtrack - Death March Tabs

Artists:  A B C D E F G H I J K L M N O P Q R S T U V W X Y Z # 

Death March Tabs

(ver. 1) Click to play this song!
Misc Soundtrack
 Rating:
4/5 (4 votes)
                (Theme)
the other guys is kinda right but this really is the best way to go!

Tuning (D A D G B E)

D|----5--5-5-5-/8--7--7--5--5--3--5--
A|----5--5-5-5-/8--7--7--5--5--3--5--
D|----5--5-5-5-/8--7--7--5--5--3--5--

This is a great song with distortion and Drop D! Peace out and keep on rockin'!


e----------------------------------------------------------------------------
B----------------------------------------------------------------------------
G----------------------------------------------------------------------------
D--/8-8-7-8-------11--10-10-8-8-7-8------------------------------------------
A--/8-8-7-8-------11--10-10-8-8-7-8------------------------------------------
E----------------------------------------------------------------------------


Kick in some heavy distortion and it sounds even better...... 
            
Submit corrections

↑ Back to top | Tablatures and chords for acoustic guitar and electric guitar, ukulele, drums are parodies/interpretations of the original songs. You may use it for private study, scholarship, research or language learning purposes only