» » »

Misc Computer Games - Zelda 64 Zeldas Lullaby Tabs

Artists:  A B C D E F G H I J K L M N O P Q R S T U V W X Y Z # 

Zelda 64 Zeldas Lullaby Tabs

(ver. 1) Click to play this song!
Misc Computer Games
 Rating:
4/5 (4 votes)
                Tuning: Standard (E A D G B E)

really easy song, only use top 3 strings (G, B, E)E|--------------------6-4-------------------------------6-4-
B|----4------4------4-----4----------4---------4------4-----
G|--5---3--5---3--5---------6-5-3--5---3-0-3-5---3--5-------
D|-------------------------------------||
A|-------------------------------------||
E|-------------------------------------||


E|--11--11-9-8-9-8-----7-5-4-5-4------11-9-8-9-8----11--16||
B|-----------------9-------------4-5--------------9-------||
G|--------------------------------------------------------||
D|--------------------------------------------------------||
A|--------------------------------------------------------||
E|--------------------------------------------------------||
          The legend of Zelda
          ocarina of time
          
          
          Zelda's Lullaby
          
          E|-7--10-------7--10-----7---10---17---15—10-|
          B|------10----------10-----------------------|
          G|-------------------------------------------|
          D|-------------------------------------------|
          A|-------------------------------------------|
          E|-------------------------------------------|
          
          mookie
            
Submit corrections

↑ Back to top | Tablatures and chords for acoustic guitar and electric guitar, ukulele, drums are parodies/interpretations of the original songs. You may use it for private study, scholarship, research or language learning purposes only