» » »

Misc Computer Games - Duke Nukem 3d Tabs

Artists:  A B C D E F G H I J K L M N O P Q R S T U V W X Y Z # 

Duke Nukem 3d Tabs

(ver. 1) Click to play this song!
Misc Computer Games
 Rating:
4/5 (4 votes)
                (Theme)


Standard tuning

Use lot's o' distortion

Riff 1
e|--------------------------------------||
B|--------------------------------------||
G|--------------------------------------|| doubled
D|--------------------0---------------0-|| 2nd time
A|-4-0-2---4-2-4--4-4-0-4-4---2-0-4-2-0-||
E|-2-0-2---2-2-4--2-4---2-----4-2-2-0---||

Riff 2
e|-----------------------|
B|-----------------------|
G|-----------------------|
D|---0-------------------|
A|-2-0---2-4-4-4---4-4-5-|
E|---0---------2-------2-|

Riff 3a                 Riff 3b             Riff 3c
e|--------------------|-------------------|-----------------
B|--------------------|-------------------|-----------------
G|--------------------|-------------------|-----------------
D|--------------0-0---|-0-----------------|---0---0---------
A|2-2-2-2-2-2-2-0---5-|-0-4-4-4-4-5---4-2-|-4-0-2-0-2---2-4-
E|2-2-0-0-0-0-0-----3-|---2-2-2-2-2---2-0-|-2---2---2-4-0-4-

Riff 4a     Riff 4b  Riff 4c
e|---------|-------|------------------|
B|---------|-------|------------------|
G|---------|-------|------------------|
D|---------|-------|------------------|
A|-0----5--|-----5-|-4-4-4-4---4----0-|
E|---3-----|-2-3---|-------2--------2-|
           |--11x--|

then play riff 3

Riff 5a   Riff 5b   Riff 5c
e|-------|---------|-------------------|
B|-------|---------|-------------------|
G|-------|---------|-------------------|
D|---0—0-|---0-----|-0-0-------------0-|
A|-0-0---|-0---0-2-|-2-2-2-2-2-2-4-2-0-|
E|-------|-------0-|-----0-0-0-0-2-0---|
 |--2x---|

Riff 6a 	     Riff 6b
e|-----------------|---------------------|
B|-----------------|---------------------|
G|-----------------|---------------------|
D|---0-0-0-0-------|-----------0---------|
A|-4—0-4-4-2-0---0-|-------0-5-0-2---2-4-|
E|-4---------0-0-0-|-0-2-4-2-2---2-4-0-4-|

Riff 7
|-----------|
|-----------|
|-----------|
|-----------|
|-0---------|
|---2-2-2-2-|

I think that should be it. Enjoy

Duke Quotes:
“You’re an inspiration for birth control!”

“Your face, your ass…what’s the difference?”

"It's time to kick ass and chew bubblegum...and I'm all out of gum."

“Damn, that’s the SECOND time those alien bastards shot up my ride!”

"Damn, I'm lookin' good!"

"I'm gonna kick your ass, b**ch!"

"Hail to the king, baby!"

"This really p**ses me off!"

etc
            
Submit corrections

↑ Back to top | Tablatures and chords for acoustic guitar and electric guitar, ukulele, drums are parodies/interpretations of the original songs. You may use it for private study, scholarship, research or language learning purposes only