» » »

Misc Computer Games - Chash Bandicoot Bass

Artists:  A B C D E F G H I J K L M N O P Q R S T U V W X Y Z # 

Chash Bandicoot Bass

(ver. 1) Click to play this song!
Misc Computer Games
 Rating:
4/5 (4 votes)


 Chash Bandicoot lessons Tabs too difficult? Try these video lessons and learn fast
 
                "(3)
(Theme)
-------------------------------------------------------------------------------
	              Main Theme - Crash Bandicoot 3: Warped
-------------------------------------------------------------------------------


Tuning: Standard (EADG)

Main theme from Crash Bandicoot 3: Warped on the PlayStation 1. Heard on the 
title screen and warp room. Variations of this play on the bonus stages, but 
the main riff is always the same.
Very cool sounding and easy. Beginners may have trouble on the last part of the 
change though. If so, just play  D|5---5---5---5---| instead :)


Main Riff
G|----------------|----------------|----------------|----------------|
D|----------------|----------------|----------------|----------------|
A|----6-7-6-5-----|----6-7-6-5-----|----6-7-6-5-----|--3---3---3-5---|
E|5-------------3-|5-------------3-|5-----------5-3-|5---------------|

Change
G|----------------|----------------|----------------|----------------|
D|----------------|----------------|------------7---|5---5---5-------|
A|7---7---7---6---|5---5---5---7---|8---8---8-------|---------8-7-65-|
E|----------------|----------------|----------------|---------------8|

Bridge
G|----------------|----------------|
D|----------------|----------------|
A|----------------|------------3-5-|
E|5--5--5---3-----|5--5--5---5-----|

Ending
G|----------------|----------------|
D|----------------|----------------|
A|----------------|----------------|
E|5-------------3-|5---------3---4-|


Structure
 Main Riff - x4
 Change - x2
 Main Riff - x2
 Bridge - x4
 Ending -x2
 Loop
                                                                     18.12.07
===============================================================================
"            
Submit corrections



        Chash Bandicoot lessons Hard to play? Try these video lessons and learn fast Chash Bandicoot lessons
        
↑ Back to top | Tablatures and chords for acoustic guitar and electric guitar, ukulele, drums are parodies/interpretations of the original songs. You may use it for private study, scholarship, research or language learning purposes only