» » »

Misc Computer Games - Castlevania - Stage Bass

Artists:  A B C D E F G H I J K L M N O P Q R S T U V W X Y Z # 

Castlevania - Stage Bass

(ver. 2) Click to play this song!
Misc Computer Games
 Rating:
4/5 (4 votes)


 Castlevania - Stage lessons Tabs too difficult? Try these video lessons and learn fast
 
                "(2)
Castlevania - Stage 2




G---------------------|----------------------------------5-|---------------14-|
D---------------------|-----------7-------99--------7--7---|-----12-12--15----|
A-5555555555555---3-5-|-x2-5-5--8----5-10-----5-5-8--------|-x2---------------|
E---------------5-----|------------------------------------|------------------|
     Intro

G-------14-----------10--------|--------------------------------------|-------|
D-12-15------8-8--12------8-10-|-----------------------------88877766-|-------|
A------------------------------|-x2-----------------------------------|-x2----|
E------------------------------|----555555555555555555555555----------|-------|


G------------|---------------------------------------------------------------|
D----6-------|---------------------------------------------------------------|
A------------|-x2------------------------------------------------------------|
E-44---4-4-5-|---------------------------------------------------------------|
"            
Submit corrections



        Castlevania - Stage lessons Hard to play? Try these video lessons and learn fast Castlevania - Stage lessons
        
↑ Back to top | Tablatures and chords for acoustic guitar and electric guitar, ukulele, drums are parodies/interpretations of the original songs. You may use it for private study, scholarship, research or language learning purposes only