» » »

Misc Computer Games - Balamb Tabs

Artists:  A B C D E F G H I J K L M N O P Q R S T U V W X Y Z # 

Balamb Tabs

(ver. 1) Click to play this song!
Misc Computer Games
 Rating:
4/5 (4 votes)
                (Theme)
This song isn't hard to play at all.  It is the music that plays in the background when
you are in the town of Balamb not Balamb garden.  If you listen closely you can recognize it.

e|-------2-------2--------2-------2--------0-------0--------3-------3-|
B|-----0-----0----------0-----0----------0-----0----------3-----3-----|
G|---2---------2------2---------2------0---------0------0---------0---|
D|-0----------------0----------------0----------------0---------------|
A|--------------------------------------------------------------------|
E|--------------------------------------------------------------------|

e|-------2-------2--------2-------2-------0-------0--3-----2-----0---|
B|-----0-----0----------0-----0---------0-----0--------3-----3-----3-|
G|---2---------2------2---------2-----0---------0--------0-----0-----|
D|-0----------------0---------------0--------------------------------|
A|-------------------------------------------------------------------|
E|-------------------------------------------------------------------|
					
e|-2-----2-------2--------2-2h3h2-----2--------0-------0--------3-----3---|
B|---3-------3----------3---------3----------0-----0--------3-------3---3-|
G|-----2-------2------2-------------2------0---------0--------0-----------|
D|------------------0--------------------0----------------0-------0-------|
A|------------------------------------------------------------------------|
E|------------------------------------------------------------------------|


e|-------2-------2--5-----3-----2---3-----2-----3----0-|
B|-----0-----0--------0-----0-----0---0-----0-----0--3-|
G|---2---------2--------0-----0---------0-----0------0-|
D|-0---------------------------------------------------|
A|-----------------------------------------------------|
E|-----------------------------------------------------|

e|-2-----2-------2--5-----5-------5--7-----7-------7--5-----5-------5-|
B|---3-------3--------6-------6--------8-------8--------7-------7-----|
G|-----2-------2--------5-------5--------7-------7--------7-------7---|
D|--------------------------------------------------------------------|
A|--------------------------------------------------------------------|
E|--------------------------------------------------------------------|

e|-2-----2-------2--5-----5-------5--7-----7-------7-------14---------|
B|---3-------3--------6-------6--------8-------8-------10------15--10-|
G|-----2-------2--------5-------5--------7-------7--------------------|
D|--------------------------------------------------------------------|
A|--------------------------------------------------------------------|
E|--------------------------------------------------------------------|

e|-------3-------3-5-----3-------3--3-----3-------3-5-----3-------3-|
B|-----3-----3-------3-------3----------3-----3-------3-------3-----|
G|---4---------4-------4-------4------4---------4-------4-------4---|
D|-0----------------------------------------------------------------|
A|------------------------------------------------------------------|
E|------------------------------------------------------------------|

e|-------2-------2-------2-------2--------0----------3-|
B|-----0-----0-------0-------0----------3-----3---3--3-|
G|---2---------2-------2-------2------3---------3----3-|
D|-0--------------------------------0------------------|
A|-----------------------------------------------------|
E|-----------------------------------------------------|

If you would like to use it ask me.
            
Submit corrections

↑ Back to top | Tablatures and chords for acoustic guitar and electric guitar, ukulele, drums are parodies/interpretations of the original songs. You may use it for private study, scholarship, research or language learning purposes only