» » »

Misc Christmas - Jolly Old Saint Nicholas Bass

Artists:  A B C D E F G H I J K L M N O P Q R S T U V W X Y Z # 

Jolly Old Saint Nicholas Bass

(ver. 1) Click to play this song!
Misc Christmas
 Rating:
4/5 (4 votes)
                Jolly Old Saint Nicholas

G|--0-0-0-0----------------0~---|
D|----------2-2-2~-0-0-0-0------|
A|------------------------------|
E|------------------------------|

G|------------------------------|
D|--------------2~-4-3-4-5-4~---|
A|--4-4-4-4-2-2-----------------|
E|------------------------------|

G|--0-0-0-0----------------0~---|
D|----------2-2-2~-0-0-0-0------|
A|------------------------------|
E|------------------------------|

G|------------------------------|
D|--------------2~-4-3-4-5-2~---|
A|--4-4-4-4-2-2-----------------|
E|------------------------------|
            
Submit corrections

↑ Back to top | Tablatures and chords for acoustic guitar and electric guitar, ukulele, drums are parodies/interpretations of the original songs. You may use it for private study, scholarship, research or language learning purposes only