» » »

Misc Artists - Cool Tabs

Artists:  A B C D E F G H I J K L M N O P Q R S T U V W X Y Z # 

Cool Tabs

(ver. 1) Click to play this song!
Misc Artists
 Rating:
4/5 (4 votes)

 Cool lessons Tabs too difficult? Try these video lessons and learn fast
 
                (Riff)
this is a riff that i made up. if you dont like it tuff!!
it sounds good clean, but sounds better with destortion and echo. play it slow
for a mellow song but it works best as a fast lead riff. 

E|-------------------------------------- |
B|-------------------------------------- |
G|--------------------------------------.|
D|------7-5---5^--------------7-5---5/7-.|
A|----------7---7-5-7-5-----------7----- |
E|--5-5-----------------8-5-5----------- | Repeat x2

E|--------------------------------------|
B|--------------------------------------|
G|------7-5---5^--------------7-5---5/7-|
D|----------7---7-5-7-5-----------7-----|
A|--5-5-----------------7-5-5-----------|
E|--------------------------------------|

E|--------------------------------------|
B|--------------------------------------|
G|--------------------------------------|
D|------7-5---5^--------------7-5---5/7-|
A|----------7---7-5-7-5-----------7-----|
E|--5-5-----------------8-5-5-----------|

E|------------------------|
B|------------------------|
G|------9-7---7^----------|
D|----------9---9-7-9-7---|
A|--7-7-----------------7-|
E|------------------------|

E|------------------------|
B|------------------------|
G|------7-5---5^----------|
D|----------7---7-5-7-5---|
A|--5-5-----------------7-|
E|------------------------|

E|--------------------------------------|
B|--------------------------------------|
G|--------------------------------------|
D|------7-5---5^--------------7-5---5/7-|
A|----------7---7-5-7-5-----------7-----|
E|--5-5-----------------8-5-5-----------|

play hard
keep it real
see you on the other side ;)
            
Submit corrections


        Cool lessons Hard to play? Try these video lessons and learn fast Cool lessons
        
↑ Back to top | Tablatures and chords for acoustic guitar and electric guitar, ukulele, drums are parodies/interpretations of the original songs. You may use it for private study, scholarship, research or language learning purposes only