Home » M » Michael Jackson »

Michael Jackson - Give In To Me Tabs

Artists:  A B C D E F G H I J K L M N O P Q R S T U V W X Y Z # 

Give In To Me Tabs

(ver. 2) Click to play this song!
Michael Jackson
Michael Jackson featuring Slash

This song is easy to play, and is quite slow with hardly any
distortion.

VERSE (Em C Dadd9)
  E:--------------------0--------
  b:---0----------------1----3---
  g:---0--------0-------0--0-0---
  d:---2----2-4---4-2---2----4---
  a:---2--2-----------2-3----5---
  e:---0-------------------------
  She always ......


PRECHORUS (Bm Am Bm D)
  E:---------------------------------
  b:---------------------------------
  g:---------------------------------
  d:----------0-----------------2----
  a:--2-2-2-2---2-0-----0-2-2-2---3~-
  e:----------------3-3--------------
  Don't try .....


CHORUS (Em C Dadd9)
  E:---------0--0-0-0---0--0-------
  b:---------0--0-0-0---1--1--3----
  g:---0--0--0--0-0-0---0--0--0----
  d:---2--2--2--2-2-2---2--2--4----
  a:---2--2-------------3-----5----
  e:---0--0------------------------
  Love is a feeling
  Give it when ...

(Em C5 B5)
  E:------------------
  b:------------------
  g:--0--0--0---5--4--
  d:--2--2--2---5--4--
  a:--2--2--2---3--2--
  e:--0--0--0---------
  Give in to me (x2)

VERSE 2
  
CHORUS


BRIDGE (Am G Em)
  E:-------0--3----0---0----
  b:--1--1-1--0----0---0----
  g:--2--2-2--0----0---0----
  d:--2--2-2--0----2---2----
  a:--0--0----2----2---2----
  e:----------3----0---0----
  You and your ......

(Am G F5 Bsus4 Bm)
  E:--0---3---0---2---2---------
  b:--1---0---0---5---3---------
  g:--2---0---2---4---4---------
  d:--2---0---3---4---4---------
  a:--0---2---3---2---2---------
  e:------3---1-----------------
  You won't ...

-SOLO-
CHORUS/IMPROVISATION
            
Submit corrections

↑ Back to top | Tablatures and chords for acoustic guitar and electric guitar, ukulele, drums are parodies/interpretations of the original songs. You may use it for private study, scholarship, research or language learning purposes only