» » »

Metallica - Fade To Black Intro And Tabs

Artists:  A B C D E F G H I J K L M N O P Q R S T U V W X Y Z # 

Fade To Black Intro And Tabs

(ver. 1) Click to play this song!
Metallica
 Rating:
4/5 (4 votes)

 Fade To Black Intro And lessons Tabs too difficult? Try these video lessons and learn fast
 
                Fade to Black by MetallicA (Ride the Lightning)

e ----------------------------------------------------------------------------------
B ----------------------------------------------------------------------------------
G -----0----------------------0--------------------0--------------------2-----------
D ---4---4---4-0-4----------4---4---4-0-4--------4---4---4-0-4--------2---2---2-0-2-
A -2-------2--------------0-------0------------2-------2------------4-------4-------
E ----------------------------------------------------------------------------------

Intro Solo

e ----------------------------------------------------------------------------------
B ------7----7-8-10--8-10-12-10-8-10--12-10-8\7-8-7---7-------------------8-7--8/10-
G ----7---------------------------------------------9---9-7------7-6--7-6-----------
D -/9------9------------------------------------------------7-9---------------------
A ----------------------------------------------------------------------------------
E ----------------------------------------------------------------------------------

e ----14-19-14--------15-14----------------------------------------------------------------19-17-15--15-17-14-------
B -15----------15-----------15-----17-15-14------------------------------14-15----14-15-14--------------------15----
G ----------------16-----------14-----------16-14--14-16-----------14-16-------16--------------------------------16-
D -------------------------------------------------------14--14-16--------------------------------------------------
A ------------------------------------------------------------------------------------------------------------------
E ------------------------------------------------------------------------------------------------------------------

e -14-15-14--------14-15-14----17-15-14-
B ----------15--------------15----------
G -------------14-----------------------
D --------------------------------------
A --------------------------------------
E --------------------------------------


e ---------------------1-3-1h3p1---
B -----------------1-3-----------3-
G -------------0-2-----------------
D -------0-2-3---------------------
A -0-2-3---------------------------
E ---------------------------------
            
Submit corrections


        Fade To Black Intro And lessons Hard to play? Try these video lessons and learn fast Fade To Black Intro And lessons
        
↑ Back to top | Tablatures and chords for acoustic guitar and electric guitar, ukulele, drums are parodies/interpretations of the original songs. You may use it for private study, scholarship, research or language learning purposes only