» » »

Merle Haggard - Fightin Side Of Me Tabs

Artists:  A B C D E F G H I J K L M N O P Q R S T U V W X Y Z # 

Fightin Side Of Me Tabs

(ver. 1) Click to play this song!
Merle Haggard
 Rating:
4/5 (4 votes)


 Fightin Side Of Me lessons Tabs too difficult? Try these video lessons and learn fast
 
                merle haggard

Intro and riff
   
                     __    __    __          __    __    __          __
  |     |     |     |  |  |  |  |  |  |     |  |  |  |  |  |  |     |  |
|-----------------------|-----------------------|-----------------------|
|-----------------------|-----------------------|-----------------------|
|-------------------4--0|-4--2-----0--2-----2--0|-2--1-----0--1-----1--0|
|-----------------------|-----------------------|-----------------------|
|-----------------------|-----------------------|-----------------------|
|-----------------------|-----------------------|-----------------------|

   __    __          __    __    __    __    __                __    __
  |  |  |  |  |     |  |  |  |  |  |  |  |  |  |  |     |     |  |  |  |
|-----------------------|-----------------------|-----------------------|
|-----------------------|-----------------------|-----------------------|
|-1---------------------|-----------------------|-----------------------|
|----4-----0--4-----2--0|-2--1-----------2------|-------------------2--2|
|-----------------------|----------2--4-----4--2|-------------0--2------|
|-----------------------|------------H--------P-|-0-------------H-------|

         __    __    __
  |     |  |  |  |  |  |  |
|-----------------------|-----------------------|
|-----------------------|-----------------------|
|-----------------------|-----------------------|
|-------2--------2------|-----------------------|
|----------2--4-----4--2|-----------------------|
|-0----------H--------P-|-0---------------------|



Outro
   __    __    __    __    __    __    __    __    __    __    __    __
  |  |  |  |  |  |  |  |  |  |  |  |  |  |  |  |  |  |  |  |  |  |  |  |
|-----------------------|-----------------------|-----------------------|
|-----------------------|-----------------------|-----------------------|
|-----------------------|-----------------------|-----------------------|
|----------3-----3-----3|----------3-----3-----3|----------3-----3-----3|
|-------3-----------3---|-------3-----------3---|-------3-----3-----3---|
|-0--1------------------|-0--1------------------|-0--1------------------|
    H                       H                       H

  |
|-----------------------|
|-----------------------|
|-----------------------|
|-----------------------|
|-----------------------|
|-1---------------------|
            
Submit corrections



        Fightin Side Of Me lessons Hard to play? Try these video lessons and learn fast Fightin Side Of Me lessons
        
↑ Back to top | Tablatures and chords for acoustic guitar and electric guitar, ukulele, drums are parodies/interpretations of the original songs. You may use it for private study, scholarship, research or language learning purposes only