Home » M » Merle Haggard »

Merle Haggard - The Farmer's Daughter Tabs

Artists:  A B C D E F G H I J K L M N O P Q R S T U V W X Y Z # 

The Farmer's Daughter Tabs

(ver. 1) Click to play this song!
Merle Haggard
 Rating:
4/5 (4 votes)
                The Farmer's Daughter intro:

Dropped D 
e--------------
b--------------
g--------------
d-----0--------
a-2h4--0-------
d-------4-2-0--

Try the 1st fiddle lick

e-12--------
b-10-10-----
g-----------
d----12-12--
a-------10--
d-----------
            
Submit corrections

↑ Back to top | Tablatures and chords for acoustic guitar and electric guitar, ukulele, drums are parodies/interpretations of the original songs. You may use it for private study, scholarship, research or language learning purposes only