Home » M » Merle Haggard »

Merle Haggard - Swinging Doors (g & B Bender) Tabs

Artists:  A B C D E F G H I J K L M N O P Q R S T U V W X Y Z # 

Swinging Doors (g & B Bender) Tabs

(ver. 1) Click to play this song!
Merle Haggard
 Rating:
4/5 (4 votes)
                Hi guys, this is a version that I came up with for my own use, 
and seems to work well, you don't have to have a Double bender
to use this, but it helps, first post of tab, be kind...lol.




E-15-15------------15----15--10-10---12--10--------6-3--------
B-15-15------------15(BR)15--10-10(B)----(R)--0-3(B)HOLD(R)---
G------17-15-16-----------------------------12-------------5--
D---------------17--------------------------------------------
A-------------------------------------------------------------
E-------------------------------------------------------------

E-----------------(R)12-10----------------13(B)13(V)-10-------
B-3(BR)---6---------------10(PB)(R)--10---------------13(B)(R)
G------x2-5(B)-3------------------12--------------------------
D----------------5--------------------------------------------
A-------------------------------------------------------------
E-------------------------------------------------------------

E----------------------------------------------3--------------
B-11-------6---6-----3----3--------------3-----3--------------
G----12----5(B)5(B)--2(B)-2(B)---0-----0----------------------
D----------------------------------0-2------------------------
A----------------------------------------------2--------------
E----------------------------------------------3--------------
            
Submit corrections

↑ Back to top | Tablatures and chords for acoustic guitar and electric guitar, ukulele, drums are parodies/interpretations of the original songs. You may use it for private study, scholarship, research or language learning purposes only