Home » M » Merle Haggard »

Merle Haggard - Someone Told My Story Tabs

Artists:  A B C D E F G H I J K L M N O P Q R S T U V W X Y Z # 

Someone Told My Story Tabs

(ver. 1) Click to play this song!
Merle Haggard
SOMEONE TOLD MY STORY

Key of A

INTRO:

E-10/12-12-17----------------12-----------------------------
B-------------12pbr-10-12b------12b-10---5------------------
G--------------------------9-----------2---4b-2-------------
D--------------------------------------------------2--------
A-----------------------------------------------0---2b-0----
E-----------------------------------------------------------


SOLO:

E-10/12-12-12-17-14-------------12--------------------------
B-------------------17-12pbr-10----12b-10---5---------------
G-----------------------------------------2---4b-2----------
D----------------------------------------------------2------
A--------------------------------------------------0---2b-0-
E-----------------------------------------------------------
            
Submit corrections

↑ Back to top | Tablatures and chords for acoustic guitar and electric guitar, ukulele, drums are parodies/interpretations of the original songs. You may use it for private study, scholarship, research or language learning purposes only