Home » M » Mayday Parade »

Mayday Parade - Three Cheers For Five Years Tabs

Artists:  A B C D E F G H I J K L M N O P Q R S T U V W X Y Z # 

Three Cheers For Five Years Tabs

(ver. 2) Click to play this song!
Mayday Parade
 Rating:
4/5 (4 votes)
                1/17/2007

Well well well...
First off, full credit to Mayday Parade for writing such an amazing song!
But this took me forever to tab out, so please like it!
When I first tried to submit a tab for the song "The Last Something That Meant Anything",
It was said that "Mayday Parade" was not even listed as a band on here!
I didn't get the lead guitar in the chorus, or in the outro,
But playing the rythem sounds GREAT in my opinion, but hey, you let me know what you think!
This is such a great song, I hope I did it some justice!
Comment and rate to let me know how I did!
PS: THIS IS MY FIRST TAB!
:DD

Intro/ Verse:
e|---------2---------------2--------|
B|---0---0---0---0---0---0---0---0--|
G|-4---4-------4---4---4-------4----|
D|----------------------------------|
A|----------------------------------|
E|----------------------------------|

e|---------2---------------2--------|
B|---0---0---0---0---0---0---0---0--|
G|-3---3-------3---3---3-------3----|
D|----------------------------------|
A|----------------------------------|
E|----------------------------------|

e|---------2---------------2--------|
B|---0---0---0---0---0---0---0---0--|
G|-1---1-------1---1---1-------1----|
D|----------------------------------|
A|----------------------------------|
E|----------------------------------|

e|---------2--------------------------|
B|---0---0---0---0---0---0----0----0--|
G|-----------------6---6---11---11----|
D|-4---4-------4----------------------|
A|------------------------------------|
E|------------------------------------|

Pre-Chorus:
e|-------------------|
B|-------------------|
G|-------------------|
D|-------------------|
A|-6----4----2----2--|
E|-4----2----0----0--|

e|-----------------------------------------------------|
B|-----------------------------------------------------|
G|-----------------------------------------------------|
D|-----------------------------------------------------|
A|-6-66666666666666-4-44444444444444-2-22222222222222--|
E|-4-44444444444444-2-22222222222222-0-00000000000000--|
     ..............   ..............   ..............

Chorus:
e|-------------------------------------|
B|-------------------------------------|
G|-------------------------------------|
D|-44444444----------------------------|
A|-22222222-22222222-6666666666666666--|
E|----------00000000-4444444444444444--|

e|-------------------------------------|
B|-------------------------------------|
G|-------------------------------------|
D|-------------------------------------|
A|-2222222222222222-444444444444-xxxx--|
E|-0000000000000000-222222222222-xxxx--|

e|---------------------------------------|
B|---------------------------------------|
G|---------------------------------------|
D|-44444---------------------------------|
A|-22222--xx-22222--xx-6666666666666666--|
E|--------xx-00000--xx-4444444444444444--|

e|------------------------------------|
B|------------------------------------|
G|------------------------------------|
D|------------------------------------|
A|-2222222222222222-4444444444444444--|
E|-0000000000000000-2222222222222222--|

e|------------------------------|
B|------------------------------|
G|------------------------------|
D|---------------------4--9-----|
A|-2222222222222222-4--2--7--2--|
E|-0000000000000000-2--------0--|

Verse:
e|---------2---------------2--------|
B|---0---0---0---0---0---0---0---0--|
G|-4---4-------4---4---4-------4----|
D|----------------------------------|
A|----------------------------------|
E|----------------------------------|

e|---------2---------------2--------|
B|---0---0---0---0---0---0---0---0--|
G|-3---3-------3---3---3-------3----|
D|----------------------------------|
A|----------------------------------|
E|----------------------------------|

e|---------2---------------2--------|
B|---0---0---0---0---0---0---0---0--|
G|-1---1-------1---1---1-------1----|
D|----------------------------------|
A|----------------------------------|
E|----------------------------------|

e|---------2--------------------------|
B|---0---0---0---0---0---0----0----0--|
G|-----------------6---6---11---11----|
D|-4---4-------4----------------------|
A|------------------------------------|
E|------------------------------------|

Pre-Chorus:
e|-------------------|
B|-------------------|
G|-------------------|
D|-------------------|
A|-6----4----2----2--|
E|-4----2----0----0--|

e|-----------------------------------------------------|
B|-----------------------------------------------------|
G|-----------------------------------------------------|
D|-----------------------------------------------------|
A|-6-66666666666666-4-44444444444444-2-22222222222222--|
E|-4-44444444444444-2-22222222222222-0-00000000000000--|
     ..............   ..............   ..............

Chorus:
e|-------------------------------------|
B|-------------------------------------|
G|-------------------------------------|
D|-44444444----------------------------|
A|-22222222-22222222-6666666666666666--|
E|----------00000000-4444444444444444--|

e|-------------------------------------|
B|-------------------------------------|
G|-------------------------------------|
D|-------------------------------------|
A|-2222222222222222-444444444444-xxxx--|
E|-0000000000000000-222222222222-xxxx--|

e|---------------------------------------|
B|---------------------------------------|
G|---------------------------------------|
D|-44444---------------------------------|
A|-22222--xx-22222--xx-6666666666666666--|
E|--------xx-00000--xx-4444444444444444--|

e|------------------------------------|
B|------------------------------------|
G|------------------------------------|
D|------------------------------------|
A|-2222222222222222-4444444444444444--|
E|-0000000000000000-2222222222222222--|

e|------------------------------|
B|------------------------------|
G|------------------------------|
D|---------------------4--9-----|
A|-2222222222222222-4--2--7--2--|
E|-0000000000000000-2--------0--|

e|----------------|
B|----------------|
G|-44444---44444--|
D|-xxxxx---xxxxx--|
A|-22222---22222--|
E|----------------|

e|---------------------|
B|---------------------|
G|-99--88--1111111111--|
D|-xx--xx--x-x-x-x-x---|
A|-77--66--9-9-9-9-9---|
E|---------------------|

e|-----------|
B|-----------|
G|-88888888--|
D|-xxxxxxxx--
A|-66666666--|
E|-----------|

e|----------------------------------------------------------------------|
B|----------------------------------------------------------------------|
G|----------------------------------------------------------------------|
D|-4444444444444444-9999999999999999------------------------------------|
A|-2222222222222222-7777777777777777-4444444444444444-2222222222222222--|
E|-----------------------------------2222222222222222-0000000000000000--|

e|---------------------------------------------------------------------------------------------|
B|---------------------------------------------------------------------------------------------|
G|---------------------------------------------------------------------------------------------|
D|-4444444444444444-9999999999999999-----------------------------------------------------------|
A|-2222222222222222-7777777777777777-4444444444444444-222-222-222-22-2222-444-444-444-44-44-4--|
E|-----------------------------------2222222222222222-000-000-000-00-0000-222-222-222-22-22-2--|

e|---------2---------------2--------|
B|---0---0---0---0---0---0---0---0--|
G|-4---4-------4---4---4-------4----|
D|----------------------------------|
A|----------------------------------|
E|----------------------------------|

e|---------2---------------2--------|
B|---0---0---0---0---0---0---0---0--|
G|-3---3-------3---3---3-------3----|
D|----------------------------------|
A|----------------------------------|
E|----------------------------------|

e|---------2---------------2--------|
B|---0---0---0---0---0---0---0---0--|
G|-1---1-------1---1---1-------1----|
D|----------------------------------|
A|----------------------------------|
E|----------------------------------|

e|---------2--------------------------|
B|---0---0---0---0---0---0----0----0--|
G|-----------------6---6---11---11----|
D|-4---4-------4----------------------|
A|------------------------------------|
E|------------------------------------|
                   .   .   .    .

e|---------2---------------2--------|
B|---0---0---0---0---0---0---0---0--|
G|-4---4-------4---4---4-------4----|
D|----------------------------------|
A|----------------------------------|
E|----------------------------------|
   . . . .   . . . . . . .   . . .

e|---------2---------------2--------|
B|---0---0---0---0---0---0---0---0--|
G|-3---3-------3---3---3-------3----|
D|----------------------------------|
A|----------------------------------|
E|----------------------------------|
   . . . .   . . . . . . .   . . .

e|---------2---------------2--------|
B|---0---0---0---0---0---0---0---0--|
G|-1---1-------1---1---1-------1----|
D|----------------------------------|
A|----------------------------------|
E|----------------------------------|
   . . . .   . . . . . . .   . . .

e|---------2-------------------------|
B|---0---0---0---0----0-4---0-4---0--|
G|------------------4-----4-----0----|
D|-4---4-------4---------------------|
A|-----------------------------------|
E|-----------------------------------|
   . . . .   . . .  . .   . .   . .

Outro:
e|----------------------------------------------------------------------|
B|----------------------------------------------------------------------|
G|----------------------------------------------------------------------|
D|-----------------------------------4444444444444444-9999999999999999--|
A|-2222222222222222-4444444444444444-2222222222222222-7777777777777777--|
E|-0000000000000000-2222222222222222------------------------------------|

e|----||
B|----||
G|----||
D|----||
A|-2--||
E|-0--||

End.

If there are any comments and/or corrections,
Or you can just leave them in the comment section!
AIM Screen Name: AndCambria3

Thank you!
Hope you enjoyed!
            
Submit corrections

↑ Back to top | Tablatures and chords for acoustic guitar and electric guitar, ukulele, drums are parodies/interpretations of the original songs. You may use it for private study, scholarship, research or language learning purposes only