» » »

Mayday Parade - Three Cheers For Five Years Tabs

Artists:  A B C D E F G H I J K L M N O P Q R S T U V W X Y Z # 

Three Cheers For Five Years Tabs

(ver. 1) Click to play this song!
Mayday Parade
 Rating:
4/5 (4 votes)

 Three Cheers For Five Years lessons Tabs too difficult? Try these video lessons and learn fast
 
                -------------------------------------------------------------------------------
                   Three Cheers For Five Years – Mayday Parade
-------------------------------------------------------------------------------

Tuning: Drop D 

First tab, Pls comment.

Intro/ Verse/ Pre chorus ( riff continues in pre chorus)
Gtr 1
e|---------2---------------2--------|
B|---0---0---0---0---0---0---0---0--|
G|-4---4-------4---4---4-------4----|
D|----------------------------------|
A|----------------------------------|
D|----------------------------------|

e|---------2---------------2--------|
B|---0---0---0---0---0---0---0---0--|
G|-3---3-------3---3---3-------3----|
D|----------------------------------|
A|----------------------------------|
D|----------------------------------|

e|---------2---------------2--------|
B|---0---0---0---0---0---0---0---0--|
G|-1---1-------1---1---1-------1----|
D|----------------------------------|
A|----------------------------------|
D|----------------------------------|

e|---------2--------------------------|
B|---0---0---0---0---0---0----0----0--|
G|-----------------6---6---11---11----|
D|-4---4-------4----------------------|
A|------------------------------------|
D|------------------------------------|

Pre-Chorus:
Gtr 2
e|----------------------|
B|----------------------|
G|----------------------|
D|-6~---4~----2~----2~--|
A|-6~---4~----2~----2~--|
D|-6~---4~----2~----2~--|
Gtr 3
e|----------------------|
B|----------------------|
G|-4-3—-4~---4-3-4/6\4~-|
D|----------------------|
A|----------------------|
D|----------------------|

‘Too late…………’
Gtr 2
e|------------------------------------------------------|
B|------------------------------------------------------|
G|------------------------------------------------------|
D|-6-66666666666666-4-44444444444444-2-22222222222222--2|
A|-6-66666666666666-4-44444444444444-2-22222222222222--2|
D|-6-66666666666666-4-44444444444444-2-22222222222222--2|
PM   ..............   ..............   ..............

Chorus:

Gtr 2
e|xxx-------------------------------------|
B|xxx-------------------------------------|
G|xxx-44444444----------------------------|
D|xxx-44444444-22222222-6666666666666666--|
A|xxx-22222222-22222222-6666666666666666--|
D|xxx----------22222222-6666666666666666--|

e|-------------------------------xxxx--|
B|-------------------------------xxxx--|
G|-------------------------------xxxx--|
D|-2222222222222222-444444444444-xxxx--|
A|-2222222222222222-444444444444-xxxx--|
D|-2222222222222222-444444444444-xxxx--|

e|--------xx--------xx-------------------|
B|--------xx--------xx-------------------|
G|-44444--xx--------xx-------------------|
D|-44444--xx-22222--xx-6666666666666666--|
A|-22222--xx-22222--xx-6666666666666666--|
D|--------xx-22222--xx-6666666666666666--|

e|------------------------------------|
B|------------------------------------|
G|------------------------------------|
D|-2222222222222222-4444444444444444--|
A|-2222222222222222-4444444444444444--|
D|-2222222222222222-4444444444444444--|

e|------------------------------|
B|------------------------------|       
G|------------------------------|
D|-2222222222222222-4-------|
A|-2222222222222222-4--------|
D|-2222222222222222-4----------|

Gtr 1  ‘ but you wont stop crying…’
e|--------------------------------------|
B|--------------------------------------|
G|-6-/888888888888/999/1111/1515151515--|
D|-x-/xxxxxxxxxxxx/xxx/x-x-/x-x-x-x-x---|
A|-4-/666666666666/777/9-9-/1313131313--|
D|--------------------------------------|

‘with my heart beside me…’                     
e|--------------------------------------------------------------------|
B|--------------------------------------------------------------------|
G|-6-/888888888888/999/11\9\8888/9\8/9\8---6/888888888888-9/11/15-15--|
D|-x-/xxxxxxxxxxxx/xxx/x-\x\xxxx/x\x/x\x---x/xxxxxxxxxxxx-x/x-/x--x---|
A|-4-/666666666666/777/9-\7\6666/7\6/7\6---4/666666666666-7/9-/13-13--|
D|--------------------------------------------------------------------|


Verse 2:

Gtr 1
e|---------2---------------2--------|
B|---0---0---0---0---0---0---0---0--|
G|-4---4-------4---4---4-------4----|
D|----------------------------------|
A|----------------------------------|
D|----------------------------------|

e|---------2---------------2--------|
B|---0---0---0---0---0---0---0---0--|
G|-3---3-------3---3---3-------3----|
D|----------------------------------|
A|----------------------------------|
D|----------------------------------|

e|---------2---------------2--------|
B|---0---0---0---0---0---0---0---0--|
G|-1---1-------1---1---1-------1----|
D|----------------------------------|
A|----------------------------------|
D|----------------------------------|
                                         Then gtr 2
e|---------2--------------------------| |-----|
B|---0---0---0---0---0---0----0----0--| |-----|
G|-----------------6---6---11---11----| |-----|
D|-4---4-------4----------------------| |-2~--|
A|------------------------------------| |-2~--|
D|------------------------------------| |-2~--|

‘I thought with a month of apart’

Gtr 1                                           x2
e|---------------|    |-------------------|
B|-5-4-5/7~------|    |-5-4-2h4p2----4b~--|
G|--4-4------3b--| x3 |--4-4------4~------|
D|---------------|    |-------------------|
A|---------------|    |-------------------|
D|---------------|    |-------------------|

Gtr 2
PM .............………………………………………………… 
e|---------------------|
B|---------------------|
G|---------------------| X2
D|-6------4------2-----|
A|-6-X16--4-X16--2-X32-|
D|-6------4------2-----| thought 

Pre-Chorus
Chorus

Bridge
Gtr 1
e|----------------|   
B|----------------|
G|-44444---44444--|
D|-xxxxx---xxxxx--|
A|-22222---22222--|
D|----------------|

e|------------------|
B|------------------|
G|-99--8—-1111111---|
D|-xx--x--x-x-x-x---|
A|-77--6--9-9-9-9---|
D|------------------|

e|-----------|
B|-----------|
G|-88888888--|
D|-xxxxxxxx--|
A|-66666666--|
D|-----------|

Gtr 2
e|--------------| 
B|--------------| 
G|--------------|
D|-66666-22222--| 
A|-66666-22222--| 
D|-66666-22222--|


Bridge 2
Gtr 1
e|---------------|
B|---------------|
G|-3/4444444444--|
D|-x/xxxxxxxxxx--| x8
A|-1/2222222222--|
D|---------------|

Gtr 2 
e|--------------------------------------------------------------------|
B|--------------------------------------------------------------------|
G|--------------------------------------------------------------------| 
D|6666666666666666-2222222222222222-4444444444444444-2222222222222222-|
A|6666666666666666-2222222222222222-4444444444444444-2222222222222222-|
D|6666666666666666-2222222222222222-4444444444444444-2222222222222222-|

e|---------------------------------------------------|
B|---------------------------------------------------|
G|---------------------------------------------------| 
D|6666666666666666-2222222222222222-4444444444444444-|
A|6666666666666666-2222222222222222-4444444444444444-|
D|6666666666666666-2222222222222222-4444444444444444-|

e|----------------------------------------|
B|----------------------------------------|
G|----------------------------------------| 
D|222-222-222-22-2222-444-444-444-44-44-4-|
A|222-222-222-22-2222-444-444-444-44-44-4-|
D|222-222-222-22-2222-444-444-444-44-44-4-|





‘ So sing along tonight..’
Gtr 1
e|---------2---------------2--------|
B|---0---0---0---0---0---0---0---0--|
G|-4---4-------4---4---4-------4----|
D|----------------------------------|
A|----------------------------------|
D|----------------------------------|

e|---------2---------------2--------|
B|---0---0---0---0---0---0---0---0--|
G|-3---3-------3---3---3-------3----|
D|----------------------------------|
A|----------------------------------|
D|----------------------------------|

e|---------2---------------2--------|
B|---0---0---0---0---0---0---0---0--|
G|-1---1-------1---1---1-------1----|
D|----------------------------------|
A|----------------------------------|
D|----------------------------------|

e|---------2--------------------------|
B|---0---0---0---0---0---0----0----0--|
G|-----------------6---6---11---11----|
D|-4---4-------4----------------------|  Gtr 1 continues till starting of outro with intro riff
A|------------------------------------|
D|------------------------------------|
PM                 .   .   .    .

Gtr 2 ( soft strum and slide sounds ) 
e|--------------| 
B|--------------| 
G|----------4~--|
D|-2~-4~-6~-4~--| 
A|-2~-4~-6~-2~--| 
D|-2~-4~-6~-----|


‘How does it feel…’
Gtr 3   
PM ………… .. .. .. .
e|-------------------| 
B|-----4--7--4--4-4--| 
G|-4444-44-44-44-4---| x4  (joins with outro)
D|-------------------| 
A|-------------------| 
D|-------------------|


Outro 

Gtr 2  [4.33min]
e|----------------------------------------------------------------------|
B|----------------------------------------------------------------------|
G|----------------------------------------------------4444444444444444--|   play till finish
D|-2222222222222222-4444444444444444-6666666666666666-4444444444444444--|
A|-2222222222222222-4444444444444444-6666666666666666-2222222222222222--|
D|-2222222222222222-4444444444444444-6666666666666666-------------------|

Gtr 1 fill in ( listen to the song and get the timing)
e|---------|
B|---------|
G|--4/6/8--|
D|--x/x/x--|
A|--2/4/6--|
D|---------|

Gtr 3   
PM ………… .. .. .. .
e|-------------------| 
B|-----4--7--4--4-4--| 
G|-4444-44-44-44-4---| x8  
D|-------------------| 
A|-------------------| 
D|-------------------|




Gtr 1 Solo [5.00min] ( use a Wah pedal, I think)
e|------------------------------------------------------------|
B|12-11-12----12-11-12----12-11-12----12-11-12-14-12-11-12----|
G|---------11----------11----------11----------------------11-|
D|------------------------------------------------------------|
A|------------------------------------------------------------|
D|------------------------------------------------------------|

e|-------------|
B|12-11-12-----|
G|---------11--|
D|-------------|
A|-------------|
D|-------------|

e|----11-12-11-------------------12-11--11-------------------|
B|--14--------14-12-11-14-12-11-------14--14-12-14-12-11-12--|
G|11---------------------------------------------------------|
D|-----------------------------------------------------------|
A|-----------------------------------------------------------|
D|-----------------------------------------------------------|

e|------------------------------------------------------------|
B|12-11-12----12-11-12-14-12-11-12----12-11-12-14-12-11-12----|
G|---------11----------------------11----------------------11-|
D|------------------------------------------------------------|
A|------------------------------------------------------------|
D|------------------------------------------------------------|

e|------------|
B|12-11-12-14-|
G|------------|
D|------------|
A|------------|
D|------------|

e|14-12-11-12-11----11----------------12-11-------------------------|
B|---------------14----14-12-14-12-11-------14-11-14-11-14-12-11-12-|
G|------------------------------------------------------------------|
D|------------------------------------------------------------------| END
A|------------------------------------------------------------------|
D|------------------------------------------------------------------|



Change Gtr 1 to Gtr 3 fill in ( listen to the song and get the timing)
e|---------|
B|---------|
G|--4/6/8--|
D|--x/x/x--|
A|--2/4/6--|
D|---------|

Gtr 2 
e|-----|
B|-----|
G|-----|
D|-2~--|   END
A|-2~--|
D|-2~--|



======================   END =========================================
            
Submit corrections


        Three Cheers For Five Years lessons Hard to play? Try these video lessons and learn fast Three Cheers For Five Years lessons
        
↑ Back to top | Tablatures and chords for acoustic guitar and electric guitar, ukulele, drums are parodies/interpretations of the original songs. You may use it for private study, scholarship, research or language learning purposes only