» » »

Mayday Parade - Oh Well Oh Well Tabs

Artists:  A B C D E F G H I J K L M N O P Q R S T U V W X Y Z # 

Oh Well Oh Well Tabs

(ver. 3) Click to play this song!
Mayday Parade
 Rating:
4/5 (4 votes)

 Oh Well Oh Well  lessons Tabs too difficult? Try these video lessons and learn fast
 
                (3)
Mayday Parade
Oh Well, Oh Well

Intro

E|-------------------------------------------|
B|-------------------------------------------|
G|--4--11-9--9--9-8-6--4-11-13-11-9-8-6------|
D|-------------------------------------------|
A|--2--9--7-11--7-6-4--2-9--11-9-7-6--4------|
E|-------------------------------------------|

Verse

E|-------------------------------------------|
B|----------------12-11------------12p0-11p0-|
G|---------4-11-9------11h13p11--------------|
D|-4-----4----------------------13-----------|
A|-2-4-2-2-2-9-7-----------------------------|
E|---2-0-------------------------------------|

Chorus

E|--------------------------------------------|
B|--0-0-0-0-0-0-------------------------------|
G|--4-4-4-3-4-3-------------------------------|
D|-------------4-4/6/4------------------------|
A|---------------------6-2-2-4-6--------------|
E|--------------------------------------------|

E|-------------------------7-7------------------|
B|--0-0-0-0-0-0----0-0-0-0----------------------|
G|--4-4-4-3-4-3----3-4-4-3-4-4------------------|
D|-------------4-4------------------------------|
A|----------------------------------------------|
E|----------------------------------------------|

E|--------------------------------------------|
B|--0-0-0-0-0-0-------------------------------|
G|--4-4-4-3-4-3-------------------------------|
D|-------------4-4/6/4------------------------|
A|---------------------6-2-2-4-6--------------|
E|--------------------------------------------|

E|-----------------------------------------------|
B|--0-0-0-0-0-0----0-0-0-0-0-0-------------------|
G|--4-4-4-3-4-3----3-4-4-3-4-4-------------------|
D|-------------4-4-------------------------------|
A|-----------------------------------------------|
E|-----------------------------------------------|



Verse

E|------------------------------|
B|------------------------------|
G|--8-11-8-11-13-11-13-11-------|
D|------------------------------|
A|--6-9--6-9--11-9--11-9--6-4-2-|
E|------------------------4-2-0-|

Verse

E|---------------------------------------------|
B|----------------12-11------------12-14-16----|
G|---------4-11-9------11h13p11----------------|
D|------------------------------13-------------|
A|---------2--9-7------------------------------|
E|---------------------------------------------|

Breakdown

E|-----------|
B|-----------|
G|-----------|
D|-4---------|
A|-2-2-6-4-2-|
E|---0-4-2-0-|

Ending (listen for strumming)

E|-----------------------------|
B|--0-0-0-0--0--0--0-0-0-0-0-0-|
G|--4-6-8-6-15-16-11-4-6-8-6-4-|
D|-----------------------------|
A|-----------------------------|
E|-----------------------------|
            
Submit corrections


        Oh Well Oh Well  lessons Hard to play? Try these video lessons and learn fast Oh Well Oh Well  lessons
        
↑ Back to top | Tablatures and chords for acoustic guitar and electric guitar, ukulele, drums are parodies/interpretations of the original songs. You may use it for private study, scholarship, research or language learning purposes only