» » »

Matt Skiba - Soul To Keep Tabs

Artists:  A B C D E F G H I J K L M N O P Q R S T U V W X Y Z # 

Soul To Keep Tabs

(ver. 1) Click to play this song!
Matt Skiba
 Rating:
4.3/5 (6 votes)

 Soul To Keep lessons Tabs too difficult? Try these video lessons and learn fast
 
                Here is the acoustic, solo version to the 7 Seconds song "Soul To Keep," as played 

Chords

      A/D         B           E      E5
e|----------------------------0------------|
B|-----3----------------------0------------|
G|-----2----------4-----------1------4-----|
D|-----0----------4-----------2------2-----|
A|-----0----------2-----------2------------|
E|----------------------------0------------|


Intro riff

e|-----------------|-----------------|-----------------|-----------------|
B|-----------------|-----------------|-----------------|-----------------|
G|-----4-------4---|-----4-------4---|-----4------4----|-----4------4----|
D|-----------------|-----------------|-2-2------2---2--|-2-2------2---2--|
A|-4-4-------4---4-|-2-2-------2---2-|-----------------|-----------------|
E|-----------------|-----------------|-----------------|-----------------|


Verse Riff 1

e|-----------------|-----------------|-----------------|-----------------|
B|-----------------|-----------------|-----------------|-----------------|
G|-----4-------4---|-----4-------4---|-----4------4----|-----4------4----|
D|-----------------|-----------------|-2-2------2---2--|-----------------|
A|-4-4-------4---4-|-2-2-------2---2-|-----------------|-0-0------0---0--|
E|-----------------|-----------------|-----------------|-----------------|

Verse Riff 2
e|-----------------|-----------------|
B|-----------------|-----------------|
G|-----4-------4---|-----4-------4---|
D|-----------------|-----------------|
A|-4-4-------4---4-|-2-2-------2---2-|
E|-----------------|-----------------|

Play Intro riff Twice

Verse Riff 1
I woke up from a dream I could've sworn I heard the phone
Verse Riff 2                         A/D
Fan's blowing in the corner like it does when she's at home
Verse Riff 1
Familiar desperate feeling always cold and dark inside
Verse Riff 2                             A/D
I'll probably sit here hoping soon that she'll be by my side.

B                  E
Yeah, I saw her smile that chased the blues away,
B
Her warmth will make it all okay
       A/D
'cause it's one to go and one to stay,
B
I guess it has to be that way
E                                     B
I found my kindred spirit, now she's with me as I sleep
A/D                                            B                Intro riff
and it's in her hands, up to her where she'll put my soul to keep.

Intro riff

Riff 1
Out there in the hard world trying to blend into the day
Riff 2                           A/D
A thousand different faces stare I try to look away well
Riff 1
I can feel her move within me and her voice is in my head
Riff 2                               A/D
and with that in mind I seem to find a way back home again

B                 E
Yeah, I saw her smile that chased the blues away,
B
Her warmth will make it all okay
        A/D
'cause it's one to go and one to stay,
B
I guess it has to be that way
E                          B
I found my kindred spirit, now she's with me as I sleep
A/D                                            B               Intro riff
and it's in her hands, up to her where she'll put my soul to keep.

Intro Riff
my soul to keep yeah

Intro Riff
soul to keep yeah

Intro Riff               E5
Soul to keep my soul to keep

End on B.
            
Submit corrections


        Soul To Keep lessons Hard to play? Try these video lessons and learn fast Soul To Keep lessons
        
↑ Back to top | Tablatures and chords for acoustic guitar and electric guitar, ukulele, drums are parodies/interpretations of the original songs. You may use it for private study, scholarship, research or language learning purposes only