» » »

Matt Skiba - Next To You Tabs

Artists:  A B C D E F G H I J K L M N O P Q R S T U V W X Y Z # 

Next To You Tabs

(ver. 3) Click to play this song!
Matt Skiba
 Rating:
4.2/5 (5 votes)

 Next To You lessons Tabs too difficult? Try these video lessons and learn fast
 
                

Remember to tune your guitar a half step down.

r=let ring
()=strings lightly strum them so they contribute to the harmony.

Intro/Verse

eb------------------------------------------------------------------------------|
Bb------------------------------------------------------------------------------|
Gb------------------------------------------------------------------------------|
Db------7-------7--------7-------7----------------------------------------------|
Ab--4-4---4-5-5---5--0-0---0-0-0---0--------------------------------------------|
Eb------------------------------------------------------------------------------|

Second Riff

eb------------------------------------------------------------------------------|
Bb------------------------------------------------------------------------------|
Gb-----9--9-9-9-9-999-r---------------------------------------------------------|
Db-----9--9-7-9-9-999-r---------------------------------------------------------|
Ab-----7--7-7-7-7-777-r---------------------------------------------------------|
Eb------------------------------------------------------------------------------|

Chorus Chords
     E           A5             C#5          B5     E5
eb--(0)-----------------------------------------------------------------------------|
Bb--(0)------------------------(0)----------(0)-------------------------------------|
Gb---1-----------2--------------6------------4-----9--------------------------------|
Db---2-----------2--------------6------------4-----9--------------------------------|
Ab---2-----------0--------------4------------2-----7--------------------------------|
Eb--(0)---------(0)------------(0)----------(0)-------------------------------------|

Order

Intro x 2

Verse x 3

You're walking the thin line,
between here and out of control,
but you kept me in mind,

Second Riff x 1

you've got the papercuts to prove it,

Intro x 2

Verse x 3

and your sea sick smile,
screams sweet nausea,
seventy six was a good year for me,

Second Riff x 1

its been uphill since and...

E
Don't cry,
E
or stop to wonder why,
A5
we crashed out like thunder,
C#5
on the floor or down from the ceiling,
B5
it's been nice waking up next to you.

Intro x 2

Verse x 3

And ya crossed the line,
between here and out of this world,
ya blow my mind,

Second Riff x 1
like a Colt forty five everytime

Intro x 2

Second Riff x 1

E
Don't cry,
E
or stop to wonder why,
A5
we crashed out like thunder,
C#5
on the floor or down from the ceiling,
B5
it's been nice waking up next to you.

E
Don't cry,
E
or stop to wonder why,
A5
we crashed out like thunder,
C#5
on the floor or down from the ceiling,
B5
It's been nice waking up to you.

Intro x 2
(You)
Verse x 1                  E5      D5   E5    E
And our sea sick smiles screaming home sweet home.
            
Submit corrections


        Next To You lessons Hard to play? Try these video lessons and learn fast Next To You lessons
        
↑ Back to top | Tablatures and chords for acoustic guitar and electric guitar, ukulele, drums are parodies/interpretations of the original songs. You may use it for private study, scholarship, research or language learning purposes only