» » »

Matt Skiba - Havent You Tabs

Artists:  A B C D E F G H I J K L M N O P Q R S T U V W X Y Z # 

Havent You Tabs

(ver. 1) Click to play this song!
Matt Skiba
 Rating:
4/5 (4 votes)

 Havent You lessons Tabs too difficult? Try these video lessons and learn fast
 
                Tuning: Drop D


Song tabbed on a lonely night, accompanied by beer and cigarettes.
I think this tab is pretty correct. Tell me if I'm wrong!


Intro/Verse
e|------------------------------------------------------------------------|
b|------------------------------------------------------------------------| 
G|---7-7-----6-6-----7-7------6-6-----7-7-----7-7-----7-7-----6-6---------| 
D|--7---7-7-7---7-7-7---7-7-7----7-7-7---7-7-7---7-7-7---7-7-7---7-7------| 
A|-5--5--5-5--5--5-0--0--0-0---0--0-----------------0--0--0-0--0--0-------| 
E|----------------------------------5--5--5-0--0--0-----------------------|

Chorus
e|------------------------------------------------------------------------| 
b|------------------------------------------------------------------------| 
G|-7-7-7-7-7-7-7-7-7-7-7-7-7-7-7-7-7-7-7-7-7-7-7-7-6-6-6-6-6-6-6-6--------| 
D|-7-7-7-7-7-7-7-7-7-7-7-7-7-7-7-7-7-7-7-7-7-7-7-7-7-7-7-7-7-7-7-7--------| 
A|-----------------5-5-5-5-5-5-5-5-0-0-0-0-0-0-0-0-0-0-0-0-0-0-0-0--------| 
E|-5-5-5-5-5-5-5-5--------------------------------------------------------|


e|------------------------------------------------------------------------| 
b|------------------------------------------------------------------------| 
G|-7-7-7-7-7-7-7-7-7-7-7-7-7-7-7-7-7-7-7-7-7-7-7-7-6-6-6-6-6-6-6-6--------| 
D|-7-7-7-7-7-7-7-7-7-7-7-7-7-7-7-7-7-7-7-7-7-7-7-7-7-7-7-7-7-7-7-7--------| 
A|-----------------5-5-5-5-5-5-5-5-0-0-0-0-0-0-0-0-0-0-0-0-0-0-0-0--------| 
E|-5-5-5-5-5-5-5-5--------------------------------------------------------|

e|------------------------------------------------------------------------| 
b|------------------------------------------------------------------------| 
G|-7-7-7-7-7-7-7-7-6------------------------------------------------------| 
D|-7-7-7-7-7-7-7-7-7------------------------------------------------------| 
A|-0-0-0-0-0-0-0-0-0------------------------------------------------------| 
E|------------------------------------------------------------------------|
            
Submit corrections


        Havent You lessons Hard to play? Try these video lessons and learn fast Havent You lessons
        
↑ Back to top | Tablatures and chords for acoustic guitar and electric guitar, ukulele, drums are parodies/interpretations of the original songs. You may use it for private study, scholarship, research or language learning purposes only