» » »

Matchbox Twenty - Hang Bass

Artists:  A B C D E F G H I J K L M N O P Q R S T U V W X Y Z # 

Hang Bass

(ver. 1) Click to play this song!
Matchbox Twenty
 Rating:
4/5 (4 votes)

 Hang lessons Tabs too difficult? Try these video lessons and learn fast
 
                

Bass comes in ~1:24 sec into the song.

G | ---------|---------------|--------------|---------|-------|
D | ---------|o-------------o|--------------|---------|-------|
A | 7------7-|o ---0---3-3--o| ----7---5----| 3-------|-------|
E | ---------|--3------------|3-------------|---------|-------|

G | ----------| ----------|----------|------------| ---------|
D |o----------|-----------|----------| ----------o| ---------|
A |o----------|-----------|3---3-----|3---3------o|7---7-----|
E |  3---3----|3---3------|----------|------------|----------|

G | ---------| ----------| ----------| ---------|-----------|
D | ---------| ----------| ----------|5---5-----| ----------|
A |5---5-----| ----------|3---3------| ---------|5---5------|
E |----------|3---3------|-----------|----------|-----------|

G |---------|----------|--------------|---------|---------|
D |---------|----------| -------------|---------|---------|
A |---------|3---3-----|5---------5---|---------|---------|
E |3---3----|----------|---3--3-------|---------|---------|

G | ---------------|------------------|-----------------|
D | ---------------|o-----------------|----------------o|
A |3-3-3-3-5-5-5-5-|o---------0-0-0-0-|3-3-3-3-3-3-3-3-o|
E |----------------|-3-3-3-3----------|-----------------|

G | ---------------|----------------|----------------|
D | ---------------|----------------|----------------|
A |7-7-7-x-5-5-5-5-|3-3-3-3-3-3-3-3-|5-5-5-5-5-5-5-5-|
E |----------------| ---------------|----------------|

                                                                  
                                         (Repeat 3x)
G | ----------------|-----------------|----------------|
D |o----------------|----------------o|----------------|
A |o--------0-0-0-0-|3-3-3-3-3-3-3-3-o|7-7-7-x-5-5-5-5-|
E |-3-3-3-3---------|-----------------|----------------|

      (Fade to end)            
G |-----------------|
D | ----------------|
A |3--------------- |
E |-----------------|

That's it....hopefully this is right! :)
Listen to the song for the timing.
            
Submit corrections


        Hang lessons Hard to play? Try these video lessons and learn fast Hang lessons
        
↑ Back to top | Tablatures and chords for acoustic guitar and electric guitar, ukulele, drums are parodies/interpretations of the original songs. You may use it for private study, scholarship, research or language learning purposes only