» » »

Matchbox Twenty - Disease Tabs

Artists:  A B C D E F G H I J K L M N O P Q R S T U V W X Y Z # 

Disease Tabs

(ver. 3) Click to play this song!
Matchbox Twenty
 Rating:
4/5 (4 votes)

 Disease lessons Tabs too difficult? Try these video lessons and learn fast
 
                (Riff)
Matchbox Twenty
"Disease"
This is only the cool-ass riff that plays at the end of the first four
bars of the second verse. 

s=slide

Feels like you're making a mess
E --------------------------------------------------------------------
B------9--------------------------------------------------------------
G----------11---8-----------------------------------------------------
D--------------------12----11---9---11--------------------------------
A------------------------------------------10-------------------------
E---------------------------------------------------------------------
...in a black dress
E --------------------------------------------------------------------
B------9--------------------------------------------------------------
G----------11---8-----------------------------------------------------
D--------------------12----11---9---11--9-----------------------------
A---------------------------------------------------------------------
E---------------------------------------------------------------------
......drove me to the fire
E --------------------------------------------------------------------
B------9--------------------------------------------------------------
G----------11---8-----------------------------------------------------
D--------------------12----11---9---11----s8--------------------------
A---------------------------------------------------------------------
E---------------------------------------------------------------------
...left me there to burn
E --------------------------------------------------------------------
B------9--------------------------------------------------------------
G----------11---8-----------------------------------------------------
D--------------------12----11---9---11---(9)s11--11-------------------
A---------------------------------------------------------------------
E---------------------------------------------------------------------
            
Submit corrections


        Disease lessons Hard to play? Try these video lessons and learn fast Disease lessons
        
↑ Back to top | Tablatures and chords for acoustic guitar and electric guitar, ukulele, drums are parodies/interpretations of the original songs. You may use it for private study, scholarship, research or language learning purposes only