» » »

Matchbox Twenty - Disease Bass

Artists:  A B C D E F G H I J K L M N O P Q R S T U V W X Y Z # 

Disease Bass

(ver. 1) Click to play this song!
Matchbox Twenty
 Rating:
4/5 (7 votes)

 Disease lessons Tabs too difficult? Try these video lessons and learn fast
 
                -------------------------------------------------------------------------------
			     Disease - Matchbox 20
-------------------------------------------------------------------------------



I saw there was another tab for this song, and I just wanted to put up the way I play it.

This is my first tab, so I'm sorry if the format if off


another great song by Matchbox 20
Tuning: Standard

Intro:  

The intro is guitar, then the bass comes in with pick up notes
G|---------------------------------------------------------------------------|
D|--------------6------------------------------------------------------------|
A|-----------4/6-6-----------------------------------------------------------|
E|---------------------------------------------------------------------------|


It kind of goes into the chorus 
G|---------------------------------------------------------------------------|
D|---------------------------------------------------------------6-4---------|
A|------------2----4-44---2d4-44--2--4--66--4---666-----------------6-4-2----|
E|--2h4--2h4----4-----------------------------6-----4--44--------------------|


Verse
G|---------------------------------------------------------------------------|
D|---------------------------------------------------------------------------|
A|----------------------------------------4-2-4------------------------------|
E|---------4-2-4----------4-2-4-------------------------4-2-4----------------|

then only guitar until
G|---------------------------------------------------------------------------|
D|---------------------------------------------------------------------------|
A|---------------------------44444424-444-4642---------6-666--676------------|
E|--------------------------------------------424-44--------------7\---------|


Pre Chorus   "no ones ever.." leads into this
G|---------------------------------------------------------------------------|
D|---------------------------------------------------------------------------|
A|-----------------------------2-4-4444----2/777777\-------------------------|
E|--0-00-000-2-22-22--44-24--24----------------------22--202-----------------|


Chorus
G|---------------------------------------------------------------------------|
D|---------------------------------------------------------------6-4---------|
A|------------2----4-44---2d4-44--2--4--66--4---666-----------------6-4-2----|
E|--2h4--2h4----4-----------------------------6-----4--44--------------------|

G|---------------------------------------------------------------------------|
D|---------------------------------------------------------------------------|
A|------------2----4-44---2d4-44--2--4--66--4---666--------------------------|
E|--2h4--2h4----4-----------------------------6-----4--44--------------------|

Verse
G|---------------------------------------------------------------------------|
D|---------------------------------------------------------------------------|
A|--------66666666-------6-6666666---424-4464-444-4642---------6-666--676----|
E|-424-444--------424-444-----------------------------424-44--------------7\-|

then Pre chorus again

chorus
G|---------------------------------------------------------------------------|
D|---------------------------------------------------------------6-4---------|
A|------------2----4-44---2d4-44--2--4--66--4---666-----------------6-4-2----|
E|--2h4--2h4----4-----------------------------6-----4--44--------------------|

G|---------------------------------------------------------------------------|
D|----------------------------------------------------/6-4-------------------|
A|------------2----4-44---2d4-44--2--4--66--4---666--------6-4-2-------------|
E|--2h4--2h4----4-----------------------------6------------------6-4-2-------|

Chorus twice i think then

Then the "free of my disease part"
G|---------------------------------------------------------------------------|
D|---------------------------------------------------------------------------|
A|-4-44-44-24-444-464--------------------4-44-244-44-2\67676767-6-4-2--------|
E|--------------------6-44-44-24-44444-6------------------------------6-4-2--|

Then into the chorus again


then into the end

G|---------------------------------------------------------------------------|
D|---------------------------------------------------------------------------|
A|---------4-66666664--------4-666676----------4-666676----------------------|
E|--4-4444------------4-4444----------7-4-4444----------7--------------------|

G|---------------------------------------------------------------------------|
D|-------------------------------------------------------6-------------------|
A|---------4-66666664--------4-666676----------4-666676----------------------|
E|--4-4444------------4-4444----------7-4-4444-------------------------------|


Thats it I think

Hope this works for some of ya

Jrock

| /  slide up
| \  slide down
| h  hammer-on
| p  pull-off
| ~  vibrato
| +  harmonic
| x  Mute note
===============================================================================
            
Submit corrections


        Disease lessons Hard to play? Try these video lessons and learn fast Disease lessons
        
↑ Back to top | Tablatures and chords for acoustic guitar and electric guitar, ukulele, drums are parodies/interpretations of the original songs. You may use it for private study, scholarship, research or language learning purposes only