» » »

Matchbook Romance - Your Stories My Alibis Bass

Artists:  A B C D E F G H I J K L M N O P Q R S T U V W X Y Z # 

Your Stories My Alibis Bass

(ver. 2) Click to play this song!
Matchbook Romance
 Rating:
4/5 (4 votes)


 Your Stories My Alibis lessons Tabs too difficult? Try these video lessons and learn fast
 
                Your Stories, My Alibis
Matchbook Romance
GDAD Tuning

Intro & Chorus
|-----------------------------------------------------------
|-----------------------------------------------------------
|-----------------------------------------------------------
|-0h8-8-8-8-8---8-8-8-8-8-8-8---0h6-6-6-6-6---6-6-6-6-6-6-6-

	-------------------------------------------------------------|
	-------------------------------------------------------------|
	-----------------------------4-4-4-4-4-4-4-4---------0-0-0-0-|
	-0h4-4-4-4-4---4-4-4-4-4-4-4-----------------3-3-3-3---------|


Verse						Play 2nd Time, Let ring--v
|---------------------------------------------------------------------|----|
|---------------------------------------------------------------------|----|
|-------------------------------------4-4-4-4-4-4-4-4---------0-0-0-0-|----|
|-88-88-88-88-66-66-66-66-44-44-44-44-----------------3-3-3-3---------|-8~~|

Bridge
|--------------------------
|--------------------------
|--------------------------
|-8--8--8--8--8--8--8--8---

|-----------------------------------------------------------------|
|-----------------------------------------------------------------|
|------------------------------------------444444----------000000-| x2
|-888888888888-666666666666-444444444444----------333333----------|


|-------|
|-------|
|-------|
|-8~~~--|
            
Submit corrections



        Your Stories My Alibis lessons Hard to play? Try these video lessons and learn fast Your Stories My Alibis lessons
        
↑ Back to top | Tablatures and chords for acoustic guitar and electric guitar, ukulele, drums are parodies/interpretations of the original songs. You may use it for private study, scholarship, research or language learning purposes only