» » »

Matchbook Romance - The Greatest Fall Bass

Artists:  A B C D E F G H I J K L M N O P Q R S T U V W X Y Z # 

The Greatest Fall Bass

(ver. 3) Click to play this song!
Matchbook Romance
 Rating:
4/5 (4 votes)


 The Greatest Fall lessons Tabs too difficult? Try these video lessons and learn fast
 
                Band: Matchbook Romance


Intro:
G|-----|-----|
D|-----|-----|
A|-----|-7~--|
E|-5p4-|-----|


Verse I:
G|-----------------------------------------------------|
D|-----------------------------------------------------|
A|-22-2--44-4--22-2--00-0--22-2--44-4--22-2--00-0------|
E|-------------------------------------------------0~--|


Chorus:
G|----------------------------------|
D|----------------------------------|
A|-s7~------------------------------|
E|------s9~--5555-5-5-5--7777-7-7-7-|

G|------------------------------------------------|
D|------------------------------------------------|
A|-s7777-7-7-7------------------------------------|
E|--------------s9999-9-9--5555-5-5-5--7777-7-7-7-|


Verse II:
G|------------------------------------------------------------------|
D|------------------------------------------------------------------|
A|-222-2222-000-0000-222-2222-444-4444-222-2222-000-0000-222-2222-2-|
E|------------------------------------------------------------------|

G|-----------------------------------------|
D|-----------------------------------------|
A|-222-2222-000-0000-222-2222-4~--s2~--0~--|
E|-----------------------------------------|


Chorus:
G|----------------------------------|
D|----------------------------------|
A|-s7~------------------------------|
E|------s9~--5555-5-5-5--7777-7-7-7-|

G|------------------------------------------------|
D|------------------------------------------------|
A|-s7777-7-7-7------------------------------------|
E|--------------s9999-9-9--5555-5-5-5--7777-7-7-7-|


Interlude:
G|----------------------------------------------------------------------|
D|----------------------------------------------------------------------|
A|-4-4-4-4-4-4-4---------------4-4-4-4-4-4-4-s7777-s9999-10-x-10-x-10-x-|
E|---------------5-5-5-5-5-5-5------------------------------------------|


Bridge:
G|----------------------------------------|
D|----------------------------------------|
A|----------------------------------------|
E|-12121212121212s9999999s5555555555s7777-|


Chorus:
G|----------------------------------|
D|----------------------------------|
A|-s7~------------------------------|
E|------s9~--5555-5-5-5--7777-7-7-7-|

G|------------------------------------------------|
D|------------------------------------------------|
A|-s7777-7-7-7------------------------------------|
E|--------------s9999-9-9--5555-5-5-5--7777-7-7-7-|
            
Submit corrections



        The Greatest Fall lessons Hard to play? Try these video lessons and learn fast The Greatest Fall lessons
        
↑ Back to top | Tablatures and chords for acoustic guitar and electric guitar, ukulele, drums are parodies/interpretations of the original songs. You may use it for private study, scholarship, research or language learning purposes only