» » »

Maroon 5 - Wont Go Home Without You Bass

Artists:  A B C D E F G H I J K L M N O P Q R S T U V W X Y Z # 

Wont Go Home Without You Bass

(ver. 2) Click to play this song!
Maroon 5
 Rating:
4/5 (4 votes)


 Wont Go Home Without You lessons Tabs too difficult? Try these video lessons and learn fast
 
                This is my first tab, put into sixteenth note intervals to make it easier to
understand. Enjoy, and please give feedback!

Verse 1

G|----------------|----------------|----------------|----------------|
D|----------------|----------------|----------------|----------------|
A|6-6-6-6-6-6-6-6-|6-6-6-6-6-6-6-6-|8-8-8-8-8-8-8-8-|8-8-8-8-8-8-8-8-|
E|----------------|----------------|----------------|----------------|

G|----------------|----------------|----------------|----------------|
D|8-8-8-8-8-8-8-8-|8-8-8-8-8-8-8-8-|----------------|----------------|
A|----------------|----------------|6-6-6-6-6-6-6-6-|5-5-5-5-5-5-5-5-|
E|----------------|----------------|----------------|----------------|

G|----------------|----------------|----------------|----------------|
D|----------------|----------------|3-3-3-3-3-3-3-3-|3-3-3-3-3-3-3-3-|
A|3-3-3-3-3-3-3-3-|3-3-3-3-3-3-3-3-|----------------|----------------|
E|----------------|----------------|----------------|----------------|

G|----------------|----------------|----------------|----------------|
D|6-6-6-6-6-6-6-6-|8-8-8-8-8-8-8-8-|----------------|----------------|
A|----------------|----------------|6-6-6-6-6-6-6-6-|6-6-6-6-6-6-6-6-|
E|----------------|----------------|----------------|----------------|

Pre-Chorus

G|----------------|----------------|----------------|----------------|
D|----------------|----------------|----------------|----------------|
A|6-6-6-6-6-6-6-6-|6-6-6-6-6-6-6-6-|3-3-3-3-3-3-3-3-|3-3-3-3-3-3-3-3-|
E|----------------|----------------|----------------|----------------|

G|----------------|----------------|----------------|----------------|
D|7-7-7-7-7-7-7-7-|7-7-7-7-7-7-7-7-|6-6-6-6-6-6-6-6-|8-8-8-8-8-8-8-8-|
A|----------------|----------------|----------------|----------------|
E|----------------|----------------|----------------|----------------|

Chorus

G|----------------|----------------|----------------|----------------|
D|----------------|----------------|----------------|----------------|
A|6-6-6-6-6-6-6-6-|6-6-6-6-6-6-6-6-|8-8-8-8-8-8-8-8-|8-8-8-8-8-8-8-8-|
E|----------------|----------------|----------------|----------------|

G|----------------|----------------|----------------|----------------|
D|6-6-6-6-6-6-6-6-|8-8-8-8-8-8-8-8-|----------------|----------------|
A|----------------|----------------|6-6-6-6-6-6-6-6-|6-6-6-6-6-6-6-6-|
E|----------------|----------------|----------------|----------------|

Verse 2

G|----------------|----------------|----------------|----------------|
D|----------------|----------------|3-3-3-3-3-3-3-3-|3-3-3-3-3-3-3-3-|
A|3-3-3-3-3-3-3-3-|3-3-3-3-3-3-3-3-|----------------|----------------|
E|----------------|----------------|----------------|----------------|


G|----------------|----------------|----------------|----------------|
D|8-8-8-8-8-8-8-8-|8-8-8-8-8-8-8-8-|----------------|----------------|
A|----------------|----------------|6-6-6-6-6-6-6-6-|5-5-5-5-5-5-5-5-|
E|----------------|----------------|----------------|----------------|

G|----------------|----------------|----------------|----------------|
D|----------------|----------------|3-3-3-3-3-3-3-3-|3-3-3-3-3-3-3-3-|
A|3-3-3-3-3-3-3-3-|3-3-3-3-3-3-3-3-|----------------|----------------|
E|----------------|----------------|----------------|----------------|


G|----------------|----------------|----------------|----------------|
D|6-6-6-6-6-6-6-6-|8-8-8-8-8-8-8-8-|----------------|----------------|
A|----------------|----------------|6-6-6-6-6-6-6-6-|6-6-6-6-6-6-6-6-|
E|----------------|----------------|----------------|----------------|

Bridge
G|----------------|----------------|----------------|----------------|
D|----------------|----------------|----------------|----------------|
A|4-4-4-4-4-4-4-4-|----------------|6-6-6-6-6-6-6-6-|----------------|
E|----------------|4-4-4-4-4-4-4-4-|----------------|6-6-6-6-6-6-6-6-|

Outro
G|----------------|----------------|----------------|----------------|
D|----------------|----------------|----------------|----------------|
A|6-6-6-6-6-6-6-6-|6-6-6-6-6-6-6-6-|3-3-3-3-3-3-3-3-|----------------|
E|----------------|----------------|----------------|4-4-4-4-4-4-4-4-|

G|----------------|----------------|----------------|----------------|
D|----------------|----------------|----------------|----------------|
A|6(Let Ring)-----|----------------|----------------|----------------|
E|----------------|----------------|----------------|----------------|


Order

Verse 1 (x1)
Pre-Chorus (x1)
Chorus (x1)
Verse 2 (x1)
Pre-Chorus (x1)
Chorus (x2)
Bridge (x2)
Chorus (x2)
Outro (x1)
            
Submit corrections



        Wont Go Home Without You lessons Hard to play? Try these video lessons and learn fast Wont Go Home Without You lessons
        
↑ Back to top | Tablatures and chords for acoustic guitar and electric guitar, ukulele, drums are parodies/interpretations of the original songs. You may use it for private study, scholarship, research or language learning purposes only